0
SECTION
2
HEADER
9
$LTSCALE
40
0.3
9
$LIMMIN
10
0
20
0
9
$LIMMAX
10
12
20
9
9
$EXTMIN
10
-0.2785966
20
-0.4177386
9
$EXTMAX
10
6.507118
20
4.579404
9
$SNAPMODE
70
0
9
$SNAPUNIT
10
1
20
1
9
$GRIDMODE
70
0
9
$GRIDUNIT
10
10
20
10
9
$ORTHOMODE
70
0
9
$TEXTSTYLE
7
txt
9
$CLAYER
8
1
9
$CECOLOR
62
7
9
$CELTYPE
6
CONTINUOUS
9
$OSMODE
70
0
0
ENDSEC
0
SECTION
2
TABLES
0
TABLE
2
STYLE
70
1
0
STYLE
2
STANDARD
70
0
40
0
41
1
50
0
71
0
42
0.2
3
txt
4

0
ENDTAB
0
TABLE
2
LTYPE
70
9
0
LTYPE
2
CONTINUOUS
70
0
3
Ausgezogene Linie
72
65
73
0
40
0
0
LTYPE
2
GESTRICHELT
70
0
3
__ __ __ __ __ __ __ __ __ __ __ __ __ __ __
72
65
73
2
40
0.75
49
0.5
49
-0.25
0
LTYPE
2
VERDECKT
70
0
3
_ _ _ _ _ _ _ _ _ _ _ _ _ _ _ _ _ _ _ _ _ _ 
72
65
73
2
40
0.375
49
0.25
49
-0.125
0
LTYPE
2
MITTE
70
0
3
____ _ ____ _ ____ _ ____ _ ____ _ ____ _ __
72
65
73
4
40
2
49
1.25
49
-0.25
49
0.25
49
-0.25
0
LTYPE
2
PHANTOM
70
0
3
_____ _ _ _____ _ _ _____ _ _ _____ _ _ ____
72
65
73
6
40
2.5
49
1.25
49
-0.25
49
0.25
49
-0.25
49
0.25
49
-0.25
0
LTYPE
2
PUNKT
70
0
3
............................................
72
65
73
2
40
0.25
49
0
49
-0.25
0
LTYPE
2
STRICHPUNKT
70
0
3
__ . __ . __ . __ . __ . __ . __ . __ . __ .
72
65
73
4
40
1
49
0.5
49
-0.25
49
0
49
-0.25
0
LTYPE
2
RAND
70
0
3
__ __ . __ __ . __ __ . __ __ . __ __ . __ _
72
65
73
6
40
1.75
49
0.5
49
-0.25
49
0.5
49
-0.25
49
0
49
-0.25
0
LTYPE
2
GETRENNT
70
0
3
__ . . __ . . __ . . __ . . __ . . __ . . __
72
65
73
6
40
1.25
49
0.5
49
-0.25
49
0
49
-0.25
49
0
49
-0.25
0
LTYPE
2
PUNKTE
70
0
3
schliess
72
65
73
2
40
0.1
49
0.05
49
-0.05
0
ENDTAB
0
TABLE
2
LAYER
70
10
0
LAYER
2
1
70
0
62
7
6
CONTINUOUS
0
LAYER
2
2
70
0
62
7
6
CONTINUOUS
0
LAYER
2
3
70
0
62
7
6
CONTINUOUS
0
LAYER
2
4
70
0
62
7
6
CONTINUOUS
0
LAYER
2
5
70
0
62
7
6
CONTINUOUS
0
LAYER
2
6
70
0
62
7
6
CONTINUOUS
0
LAYER
2
7
70
0
62
7
6
CONTINUOUS
0
LAYER
2
8
70
0
62
7
6
CONTINUOUS
0
LAYER
2
9
70
0
62
7
6
CONTINUOUS
0
LAYER
2
10
70
0
62
7
6
CONTINUOUS
0
ENDTAB
0
ENDSEC
0
SECTION
2
BLOCKS
0
BLOCK
8
0
2
MTNBIKE-G1
70
0
10
0
20
0
0
POLYLINE
8
1
62
7
70
0
66
1
40
0
41
0
0
VERTEX
8
1
10
2.855955
20
0.5865611
0
VERTEX
8
1
10
2.859377
20
0.6026461
0
VERTEX
8
1
10
2.867932
20
0.6026461
0
VERTEX
8
1
10
2.871353
20
0.5865611
0
SEQEND
8
1
0
POLYLINE
8
1
62
7
70
0
66
1
40
0
41
0
0
VERTEX
8
1
10
3.041875
20
0.5865611
0
VERTEX
8
1
10
3.045297
20
0.6026461
0
VERTEX
8
1
10
3.053851
20
0.6026461
0
VERTEX
8
1
10
3.057273
20
0.5865611
0
SEQEND
8
1
0
POLYLINE
8
1
62
7
70
0
66
1
40
0
41
0
0
VERTEX
8
1
10
2.948344
20
0.5865611
0
VERTEX
8
1
10
2.951767
20
0.6026461
0
VERTEX
8
1
10
2.960321
20
0.6026461
0
VERTEX
8
1
10
2.963743
20
0.5865611
0
SEQEND
8
1
0
POLYLINE
8
1
62
7
70
0
66
1
40
0
41
0
0
VERTEX
8
1
10
2.978
20
0.5865611
0
VERTEX
8
1
10
2.981423
20
0.6026461
0
VERTEX
8
1
10
2.989977
20
0.6026461
0
VERTEX
8
1
10
2.993399
20
0.5865611
0
SEQEND
8
1
0
POLYLINE
8
1
62
7
70
0
66
1
40
0
41
0
0
VERTEX
8
1
10
3.008227
20
0.5865611
0
VERTEX
8
1
10
3.011649
20
0.6026461
0
VERTEX
8
1
10
3.020203
20
0.6026461
0
VERTEX
8
1
10
3.023625
20
0.5865611
0
SEQEND
8
1
0
POLYLINE
8
1
62
7
70
0
66
1
40
0
41
0
0
VERTEX
8
1
10
2.918689
20
0.5865611
0
VERTEX
8
1
10
2.922111
20
0.6026461
0
VERTEX
8
1
10
2.930665
20
0.6026461
0
VERTEX
8
1
10
2.934087
20
0.5865611
0
SEQEND
8
1
0
POLYLINE
8
1
62
7
70
0
66
1
40
0
41
0
0
VERTEX
8
1
10
2.887322
20
0.5865611
0
VERTEX
8
1
10
2.890744
20
0.6026461
0
VERTEX
8
1
10
2.899298
20
0.6026461
0
VERTEX
8
1
10
2.90272
20
0.5865611
0
SEQEND
8
1
0
POLYLINE
8
1
62
7
70
0
66
1
40
0
41
0
0
VERTEX
8
1
10
2.841697
20
0.5865611
0
VERTEX
8
1
10
2.841697
20
0.6011838
0
VERTEX
8
1
10
2.844549
20
0.6011838
0
VERTEX
8
1
10
2.8474
20
0.5865611
0
SEQEND
8
1
0
POLYLINE
8
1
62
7
70
0
66
1
40
0
41
0
0
VERTEX
8
1
10
3.07096
20
0.5865611
0
VERTEX
8
1
10
3.07096
20
0.6011838
0
VERTEX
8
1
10
3.068109
20
0.6011838
0
VERTEX
8
1
10
3.065257
20
0.5865611
0
SEQEND
8
1
0
LINE
8
1
62
7
10
2.871353
20
0.5863199
11
2.887322
21
0.5863199
0
LINE
8
1
62
7
10
2.90272
20
0.5863199
11
2.918689
21
0.5863199
0
LINE
8
1
62
7
10
2.934087
20
0.5863199
11
2.948344
21
0.5863199
0
LINE
8
1
62
7
10
2.963743
20
0.5863199
11
2.978
21
0.5863199
0
LINE
8
1
62
7
10
2.993399
20
0.5863199
11
3.008227
21
0.5863199
0
LINE
8
1
62
7
10
3.023625
20
0.5863199
11
3.041875
21
0.5863199
0
LINE
8
1
62
7
10
3.057273
20
0.5863199
11
3.065257
21
0.5863199
0
LINE
8
1
62
7
10
2.8474
20
0.5863199
11
2.855955
21
0.5863199
0
POLYLINE
8
1
62
7
70
0
66
1
40
0
41
0
0
VERTEX
8
1
10
2.855955
20
0.5324573
0
VERTEX
8
1
10
2.859377
20
0.5163724
0
VERTEX
8
1
10
2.867932
20
0.5163724
0
VERTEX
8
1
10
2.871353
20
0.5324573
0
SEQEND
8
1
0
POLYLINE
8
1
62
7
70
0
66
1
40
0
41
0
0
VERTEX
8
1
10
3.041875
20
0.5324573
0
VERTEX
8
1
10
3.045297
20
0.5163724
0
VERTEX
8
1
10
3.053851
20
0.5163724
0
VERTEX
8
1
10
3.057273
20
0.5324573
0
SEQEND
8
1
0
POLYLINE
8
1
62
7
70
0
66
1
40
0
41
0
0
VERTEX
8
1
10
2.948344
20
0.5324573
0
VERTEX
8
1
10
2.951767
20
0.5163724
0
VERTEX
8
1
10
2.960321
20
0.5163724
0
VERTEX
8
1
10
2.963743
20
0.5324573
0
SEQEND
8
1
0
POLYLINE
8
1
62
7
70
0
66
1
40
0
41
0
0
VERTEX
8
1
10
2.978
20
0.5324573
0
VERTEX
8
1
10
2.981423
20
0.5163724
0
VERTEX
8
1
10
2.989977
20
0.5163724
0
VERTEX
8
1
10
2.993399
20
0.5324573
0
SEQEND
8
1
0
POLYLINE
8
1
62
7
70
0
66
1
40
0
41
0
0
VERTEX
8
1
10
3.008227
20
0.5324573
0
VERTEX
8
1
10
3.011649
20
0.5163724
0
VERTEX
8
1
10
3.020203
20
0.5163724
0
VERTEX
8
1
10
3.023625
20
0.5324573
0
SEQEND
8
1
0
POLYLINE
8
1
62
7
70
0
66
1
40
0
41
0
0
VERTEX
8
1
10
2.918689
20
0.5324573
0
VERTEX
8
1
10
2.922111
20
0.5163724
0
VERTEX
8
1
10
2.930665
20
0.5163724
0
VERTEX
8
1
10
2.934087
20
0.5324573
0
SEQEND
8
1
0
POLYLINE
8
1
62
7
70
0
66
1
40
0
41
0
0
VERTEX
8
1
10
2.887322
20
0.5324573
0
VERTEX
8
1
10
2.890744
20
0.5163724
0
VERTEX
8
1
10
2.899298
20
0.5163724
0
VERTEX
8
1
10
2.90272
20
0.5324573
0
SEQEND
8
1
0
POLYLINE
8
1
62
7
70
0
66
1
40
0
41
0
0
VERTEX
8
1
10
2.841697
20
0.5324573
0
VERTEX
8
1
10
2.841697
20
0.5178346
0
VERTEX
8
1
10
2.844549
20
0.5178346
0
VERTEX
8
1
10
2.8474
20
0.5324573
0
SEQEND
8
1
0
POLYLINE
8
1
62
7
70
0
66
1
40
0
41
0
0
VERTEX
8
1
10
3.07096
20
0.5324573
0
VERTEX
8
1
10
3.07096
20
0.5178346
0
VERTEX
8
1
10
3.068109
20
0.5178346
0
VERTEX
8
1
10
3.065257
20
0.5324573
0
SEQEND
8
1
0
LINE
8
1
62
7
10
2.871353
20
0.5326986
11
2.887322
21
0.5326986
0
LINE
8
1
62
7
10
2.90272
20
0.5326986
11
2.918689
21
0.5326986
0
LINE
8
1
62
7
10
2.934087
20
0.5326986
11
2.948344
21
0.5326986
0
LINE
8
1
62
7
10
2.963743
20
0.5326986
11
2.978
21
0.5326986
0
LINE
8
1
62
7
10
2.993399
20
0.5326986
11
3.008227
21
0.5326986
0
LINE
8
1
62
7
10
3.023625
20
0.5326986
11
3.041875
21
0.5326986
0
LINE
8
1
62
7
10
3.057273
20
0.5326986
11
3.065257
21
0.5326986
0
LINE
8
1
62
7
10
2.8474
20
0.5326986
11
2.855955
21
0.5326986
0
LINE
8
1
62
7
10
2.841697
20
0.5865611
11
2.841697
21
0.5324573
0
LINE
8
1
62
7
10
3.070967
20
0.5885586
11
3.070967
21
0.5326986
0
CIRCLE
8
1
62
7
10
2.955088
20
0.5595092
40
0.02099883
0
ARC
8
1
62
7
10
2.954196
20
0.5601892
40
0.04389377
50
240.7947
51
305.2452
0
ENDBLK
8
0
0
ENDSEC
0
SECTION
2
ENTITIES
0
LINE
8
2
62
1
10
2.168515
20
2.476325
11
4.022885
21
2.580631
0
LINE
8
2
62
1
10
2.191346
20
2.406509
11
4.042952
21
2.509269
0
ARC
8
1
62
7
10
2.596502
20
0.9850537
40
0.2353632
50
353.1193
51
40.62595
0
LINE
8
1
62
7
10
2.636656
20
1.014151
11
2.970829
21
0.5883331
0
LINE
8
1
62
7
10
2.557806
20
0.9530174
11
2.886517
21
0.5892698
0
LINE
8
1
62
7
10
2.554415
20
0.9378058
11
2.859396
21
0.600135
0
LINE
8
1
62
7
10
2.687953
20
0.9701434
11
2.819224
21
0.9487416
0
LINE
8
1
62
7
10
2.719235
20
0.9299763
11
2.802384
21
0.892662
0
LINE
8
1
62
7
10
2.650216
20
1.018497
11
2.980999
21
0.5970253
0
ARC
8
1
62
7
10
2.596502
20
0.9850539
40
0.2353632
50
323.605
51
333.452
0
ARC
8
1
62
7
10
2.801995
20
0.9746412
40
0.01154807
50
86.97265
51
266.9726
0
ARC
8
1
62
7
10
2.800654
20
1.0107
40
0.01154807
50
97.03353
51
277.0335
0
ARC
8
1
62
7
10
2.596503
20
0.9850539
40
0.2112193
50
20.49315
51
24.30348
0
LINE
8
1
62
7
10
2.789602
20
1.05711
11
2.793938
21
1.058845
0
ARC
8
1
62
7
10
2.793002
20
1.046074
40
0.01154807
50
107.1247
51
287.1247
0
LINE
8
2
62
1
10
2.771477
20
1.071515
11
2.802043
21
1.097169
0
CIRCLE
8
3
62
7
10
2.787694
20
1.196193
40
0.004213074
0
ARC
8
3
62
7
10
2.783271
20
1.167721
40
0.01483664
50
9.089247
51
90.16217
0
ARC
8
3
62
7
10
2.787606
20
1.196091
40
0.01417357
50
190.488
51
87.93125
0
LINE
8
2
62
5
10
2.454002
20
2.405417
11
2.869255
21
2.428462
0
LINE
8
2
62
5
10
2.453038
20
2.41586
11
2.868355
21
2.438909
0
LINE
8
2
62
1
10
2.412937
20
1.385696
11
2.112583
21
2.310093
0
LINE
8
2
62
1
10
2.513335
20
1.415008
11
2.191274
21
2.406207
0
LINE
8
2
62
1
10
1.194534
20
1.160296
11
2.112322
21
2.310301
0
LINE
8
2
62
1
10
1.621582
20
1.786894
11
2.091005
21
2.374881
0
ARC
8
5
62
7
10
1.11019
20
1.101019
40
0.8914266
50
64.84435
51
332.0281
0
ARC
8
5
62
7
10
1.11019
20
1.101019
40
0.9363798
50
58.0671
51
333.6767
0
LINE
8
5
62
7
10
1.072255
20
1.267007
11
1.248949
21
1.978602
0
ARC
8
5
62
7
10
1.08491
20
1.136188
40
1.028951
50
127.3063
51
129.343
0
POLYLINE
8
5
62
7
70
0
66
1
40
0
41
0
0
VERTEX
8
5
10
0.5695866
20
1.958353
0
VERTEX
8
5
10
0.5713993
20
1.955831
0
VERTEX
8
5
10
0.4730528
20
1.88514
0
VERTEX
8
5
10
0.4703336
20
1.888923
0
SEQEND
8
5
0
POLYLINE
8
5
62
7
70
1
66
1
40
0
41
0
0
VERTEX
8
5
10
0.5568991
20
1.976004
0
VERTEX
8
5
10
0.4585527
20
1.905313
0
VERTEX
8
5
10
0.4703336
20
1.888923
0
VERTEX
8
5
10
0.5686801
20
1.959614
0
SEQEND
8
5
0
POLYLINE
8
5
62
7
70
1
66
1
40
0
41
0
0
VERTEX
8
5
10
0.42673
20
1.938748
0
VERTEX
8
5
10
0.4375206
20
1.926013
0
VERTEX
8
5
10
0.4569038
20
1.940701
0
VERTEX
8
5
10
0.4646638
20
1.93092
0
VERTEX
8
5
10
0.4130245
20
1.888836
0
VERTEX
8
5
10
0.3937324
20
1.909577
0
SEQEND
8
5
0
LINE
8
5
62
7
10
1.120974
20
1.275559
11
0.8219155
21
1.945251
0
LINE
8
5
62
7
10
1.036408
20
1.254153
11
1.061348
21
1.988587
0
POLYLINE
8
5
62
7
70
0
66
1
40
0
41
0
0
VERTEX
8
5
10
1.718269
20
1.90601
0
VERTEX
8
5
10
1.650883
20
1.954506
0
VERTEX
8
5
10
1.653604
20
1.958287
0
SEQEND
8
5
0
LINE
8
4
62
7
10
1.654095
20
1.958692
11
1.720307
21
1.910316
0
LINE
8
4
62
7
10
1.664775
20
1.976033
11
1.733835
21
1.928571
0
POLYLINE
8
2
62
5
70
0
66
1
40
0
41
0
0
VERTEX
8
2
10
1.596808
20
1.884963
0
VERTEX
8
2
10
1.50672
20
1.940967
0
VERTEX
8
2
10
1.501461
20
1.930823
0
SEQEND
8
2
0
LINE
8
2
62
5
10
1.643811
20
1.91851
11
1.762585
21
2.070414
0
LINE
8
2
62
1
10
1.211915
20
1.121445
11
2.331066
21
1.034127
0
LINE
8
2
62
1
10
1.110223
20
1.146378
11
1.576479
21
1.730398
0
LINE
8
5
62
7
10
1.232322
20
0.9551491
11
1.759795
21
0.7062423
0
LINE
8
2
62
1
10
1.237509
20
1.062722
11
2.317768
21
0.9784383
0
POLYLINE
8
2
62
5
70
4
75
6
66
1
40
0
41
0
0
VERTEX
8
2
10
1.366278
20
1.061842
70
16
0
VERTEX
8
2
10
1.346342
20
1.061842
70
16
0
VERTEX
8
2
10
1.321806
20
1.065774
70
16
0
VERTEX
8
2
10
1.30187
20
1.06774
70
16
0
VERTEX
8
2
10
1.265065
20
1.079536
70
16
0
VERTEX
8
2
10
1.219059
20
1.091332
70
16
0
VERTEX
8
2
10
1.176121
20
1.103128
70
16
0
VERTEX
8
2
10
1.107112
20
1.122788
70
16
0
VERTEX
8
2
10
1.051905
20
1.13655
70
16
0
VERTEX
8
2
10
1.008966
20
1.140482
70
16
0
VERTEX
8
2
10
0.9660274
20
1.140482
70
16
0
VERTEX
8
2
10
0.938424
20
1.134584
70
16
0
VERTEX
8
2
10
0.9108206
20
1.11689
70
16
0
VERTEX
8
2
10
0.8878177
20
1.093298
70
16
0
VERTEX
8
2
10
0.8663484
20
1.059876
70
16
0
VERTEX
8
2
10
0.8464125
20
1.020556
70
16
0
VERTEX
8
2
10
0.8356777
20
0.9851686
70
16
0
VERTEX
8
2
10
0.8356777
20
0.9517468
70
16
0
VERTEX
8
2
10
0.8402783
20
0.9261888
70
16
0
VERTEX
8
2
10
0.8510131
20
0.8986651
70
16
0
VERTEX
8
2
10
0.8663484
20
0.8790051
70
16
0
VERTEX
8
2
10
0.8770829
20
0.8672091
70
16
0
VERTEX
8
2
10
0.8970188
20
0.8573794
70
16
0
VERTEX
8
2
10
0.9062201
20
0.8534474
70
16
0
VERTEX
8
2
10
0.9215552
20
0.8514814
70
16
0
VERTEX
8
2
10
0.935357
20
0.8495154
70
16
0
VERTEX
8
2
10
0.9552928
20
0.8475494
70
16
0
VERTEX
8
2
10
0.9706281
20
0.8475494
70
16
0
VERTEX
8
2
10
0.9874705
20
0.8475494
70
16
0
VERTEX
8
2
10
1.366278
20
1.061842
70
8
0
VERTEX
8
2
10
1.359152
20
1.061929
70
8
0
VERTEX
8
2
10
1.352688
20
1.06217
70
8
0
VERTEX
8
2
10
1.346829
20
1.062533
70
8
0
VERTEX
8
2
10
1.341518
20
1.062989
70
8
0
VERTEX
8
2
10
1.336698
20
1.063506
70
8
0
VERTEX
8
2
10
1.332313
20
1.064054
70
8
0
VERTEX
8
2
10
1.328305
20
1.064602
70
8
0
VERTEX
8
2
10
1.324617
20
1.065119
70
8
0
VERTEX
8
2
10
1.321192
20
1.065584
70
8
0
VERTEX
8
2
10
1.317964
20
1.066015
70
8
0
VERTEX
8
2
10
1.314868
20
1.066438
70
8
0
VERTEX
8
2
10
1.311838
20
1.06688
70
8
0
VERTEX
8
2
10
1.308808
20
1.067368
70
8
0
VERTEX
8
2
10
1.305712
20
1.06793
70
8
0
VERTEX
8
2
10
1.302484
20
1.068591
70
8
0
VERTEX
8
2
10
1.299058
20
1.069378
70
8
0
VERTEX
8
2
10
1.295383
20
1.070312
70
8
0
VERTEX
8
2
10
1.291459
20
1.07138
70
8
0
VERTEX
8
2
10
1.287301
20
1.072564
70
8
0
VERTEX
8
2
10
1.282924
20
1.073843
70
8
0
VERTEX
8
2
10
1.278344
20
1.075199
70
8
0
VERTEX
8
2
10
1.273575
20
1.076613
70
8
0
VERTEX
8
2
10
1.268633
20
1.078065
70
8
0
VERTEX
8
2
10
1.263532
20
1.079536
70
8
0
VERTEX
8
2
10
1.258288
20
1.081011
70
8
0
VERTEX
8
2
10
1.252925
20
1.082485
70
8
0
VERTEX
8
2
10
1.247465
20
1.08396
70
8
0
VERTEX
8
2
10
1.241934
20
1.085434
70
8
0
VERTEX
8
2
10
1.236355
20
1.086909
70
8
0
VERTEX
8
2
10
1.230752
20
1.088383
70
8
0
VERTEX
8
2
10
1.22515
20
1.089858
70
8
0
VERTEX
8
2
10
1.219571
20
1.091332
70
8
0
VERTEX
8
2
10
1.214026
20
1.092809
70
8
0
VERTEX
8
2
10
1.208472
20
1.094302
70
8
0
VERTEX
8
2
10
1.202853
20
1.095825
70
8
0
VERTEX
8
2
10
1.197111
20
1.097394
70
8
0
VERTEX
8
2
10
1.191189
20
1.099025
70
8
0
VERTEX
8
2
10
1.18503
20
1.100732
70
8
0
VERTEX
8
2
10
1.178578
20
1.102532
70
8
0
VERTEX
8
2
10
1.171776
20
1.104439
70
8
0
VERTEX
8
2
10
1.164588
20
1.106462
70
8
0
VERTEX
8
2
10
1.157071
20
1.108581
70
8
0
VERTEX
8
2
10
1.149303
20
1.110769
70
8
0
VERTEX
8
2
10
1.141361
20
1.112999
70
8
0
VERTEX
8
2
10
1.133323
20
1.115245
70
8
0
VERTEX
8
2
10
1.125267
20
1.117479
70
8
0
VERTEX
8
2
10
1.11727
20
1.119674
70
8
0
VERTEX
8
2
10
1.109412
20
1.121805
70
8
0
VERTEX
8
2
10
1.101756
20
1.123846
70
8
0
VERTEX
8
2
10
1.094313
20
1.125788
70
8
0
VERTEX
8
2
10
1.087079
20
1.127622
70
8
0
VERTEX
8
2
10
1.080052
20
1.129341
70
8
0
VERTEX
8
2
10
1.073228
20
1.130937
70
8
0
VERTEX
8
2
10
1.066605
20
1.132403
70
8
0
VERTEX
8
2
10
1.06018
20
1.13373
70
8
0
VERTEX
8
2
10
1.05395
20
1.134911
70
8
0
VERTEX
8
2
10
1.047907
20
1.135942
70
8
0
VERTEX
8
2
10
1.042033
20
1.136831
70
8
0
VERTEX
8
2
10
1.036302
20
1.13759
70
8
0
VERTEX
8
2
10
1.030691
20
1.138229
70
8
0
VERTEX
8
2
10
1.025176
20
1.138761
70
8
0
VERTEX
8
2
10
1.019733
20
1.139197
70
8
0
VERTEX
8
2
10
1.014338
20
1.139548
70
8
0
VERTEX
8
2
10
1.008966
20
1.139826
70
8
0
VERTEX
8
2
10
1.003604
20
1.140041
70
8
0
VERTEX
8
2
10
0.9982715
20
1.14019
70
8
0
VERTEX
8
2
10
0.992999
20
1.14027
70
8
0
VERTEX
8
2
10
0.9878163
20
1.140277
70
8
0
VERTEX
8
2
10
0.9827535
20
1.140207
70
8
0
VERTEX
8
2
10
0.9778404
20
1.140057
70
8
0
VERTEX
8
2
10
0.973107
20
1.139822
70
8
0
VERTEX
8
2
10
0.9685833
20
1.139499
70
8
0
VERTEX
8
2
10
0.9642892
20
1.139082
70
8
0
VERTEX
8
2
10
0.9602048
20
1.138562
70
8
0
VERTEX
8
2
10
0.9563001
20
1.137926
70
8
0
VERTEX
8
2
10
0.9525452
20
1.137164
70
8
0
VERTEX
8
2
10
0.94891
20
1.136264
70
8
0
VERTEX
8
2
10
0.9453648
20
1.135214
70
8
0
VERTEX
8
2
10
0.9418794
20
1.134002
70
8
0
VERTEX
8
2
10
0.938424
20
1.132618
70
8
0
VERTEX
8
2
10
0.9349751
20
1.131053
70
8
0
VERTEX
8
2
10
0.9315351
20
1.129316
70
8
0
VERTEX
8
2
10
0.9281132
20
1.127417
70
8
0
VERTEX
8
2
10
0.9247181
20
1.125368
70
8
0
VERTEX
8
2
10
0.9213591
20
1.123181
70
8
0
VERTEX
8
2
10
0.9180449
20
1.120868
70
8
0
VERTEX
8
2
10
0.9147847
20
1.118439
70
8
0
VERTEX
8
2
10
0.9115874
20
1.115907
70
8
0
VERTEX
8
2
10
0.9084594
20
1.113279
70
8
0
VERTEX
8
2
10
0.9053974
20
1.110552
70
8
0
VERTEX
8
2
10
0.9023952
20
1.107717
70
8
0
VERTEX
8
2
10
0.899447
20
1.104766
70
8
0
VERTEX
8
2
10
0.8965466
20
1.101693
70
8
0
VERTEX
8
2
10
0.8936883
20
1.098489
70
8
0
VERTEX
8
2
10
0.8908658
20
1.095148
70
8
0
VERTEX
8
2
10
0.8880733
20
1.09166
70
8
0
VERTEX
8
2
10
0.8853058
20
1.088021
70
8
0
VERTEX
8
2
10
0.8825622
20
1.084236
70
8
0
VERTEX
8
2
10
0.8798426
20
1.080313
70
8
0
VERTEX
8
2
10
0.877147
20
1.07626
70
8
0
VERTEX
8
2
10
0.8744753
20
1.072083
70
8
0
VERTEX
8
2
10
0.8718275
20
1.067791
70
8
0
VERTEX
8
2
10
0.8692038
20
1.063392
70
8
0
VERTEX
8
2
10
0.866604
20
1.058893
70
8
0
VERTEX
8
2
10
0.8640306
20
1.054304
70
8
0
VERTEX
8
2
10
0.8614962
20
1.049642
70
8
0
VERTEX
8
2
10
0.8590157
20
1.044926
70
8
0
VERTEX
8
2
10
0.8566041
20
1.040175
70
8
0
VERTEX
8
2
10
0.8542764
20
1.035409
70
8
0
VERTEX
8
2
10
0.8520474
20
1.030647
70
8
0
VERTEX
8
2
10
0.8499324
20
1.025908
70
8
0
VERTEX
8
2
10
0.847946
20
1.021212
70
8
0
VERTEX
8
2
10
0.8461015
20
1.016573
70
8
0
VERTEX
8
2
10
0.8444037
20
1.011991
70
8
0
VERTEX
8
2
10
0.8428557
20
1.007463
70
8
0
VERTEX
8
2
10
0.8414605
20
1.002985
70
8
0
VERTEX
8
2
10
0.840221
20
0.9985535
70
8
0
VERTEX
8
2
10
0.8391402
20
0.994164
70
8
0
VERTEX
8
2
10
0.8382212
20
0.9898128
70
8
0
VERTEX
8
2
10
0.8374669
20
0.9854962
70
8
0
VERTEX
8
2
10
0.8368778
20
0.9812129
70
8
0
VERTEX
8
2
10
0.8364445
20
0.9769719
70
8
0
VERTEX
8
2
10
0.836155
20
0.9727845
70
8
0
VERTEX
8
2
10
0.8359972
20
0.9686625
70
8
0
VERTEX
8
2
10
0.8359593
20
0.9646172
70
8
0
VERTEX
8
2
10
0.8360292
20
0.9606603
70
8
0
VERTEX
8
2
10
0.8361949
20
0.9568032
70
8
0
VERTEX
8
2
10
0.8364445
20
0.9530574
70
8
0
VERTEX
8
2
10
0.8367685
20
0.9494294
70
8
0
VERTEX
8
2
10
0.8371673
20
0.9459051
70
8
0
VERTEX
8
2
10
0.8376441
20
0.9424653
70
8
0
VERTEX
8
2
10
0.8382016
20
0.9390907
70
8
0
VERTEX
8
2
10
0.8388431
20
0.9357622
70
8
0
VERTEX
8
2
10
0.8395714
20
0.9324606
70
8
0
VERTEX
8
2
10
0.8403896
20
0.9291667
70
8
0
VERTEX
8
2
10
0.8413006
20
0.9258612
70
8
0
VERTEX
8
2
10
0.8423065
20
0.9225314
70
8
0
VERTEX
8
2
10
0.8434053
20
0.9191902
70
8
0
VERTEX
8
2
10
0.8445939
20
0.9158566
70
8
0
VERTEX
8
2
10
0.8458693
20
0.9125499
70
8
0
VERTEX
8
2
10
0.8472286
20
0.9092892
70
8
0
VERTEX
8
2
10
0.8486688
20
0.9060939
70
8
0
VERTEX
8
2
10
0.8501869
20
0.902983
70
8
0
VERTEX
8
2
10
0.8517798
20
0.8999757
70
8
0
VERTEX
8
2
10
0.8534421
20
0.8970882
70
8
0
VERTEX
8
2
10
0.8551584
20
0.8943235
70
8
0
VERTEX
8
2
10
0.8569106
20
0.8916817
70
8
0
VERTEX
8
2
10
0.8586807
20
0.8891628
70
8
0
VERTEX
8
2
10
0.8604509
20
0.8867667
70
8
0
VERTEX
8
2
10
0.862203
20
0.8844935
70
8
0
VERTEX
8
2
10
0.8639193
20
0.8823432
70
8
0
VERTEX
8
2
10
0.8655816
20
0.8803158
70
8
0
VERTEX
8
2
10
0.8671795
20
0.8784093
70
8
0
VERTEX
8
2
10
0.8687325
20
0.8766142
70
8
0
VERTEX
8
2
10
0.8702675
20
0.8749189
70
8
0
VERTEX
8
2
10
0.8718115
20
0.8733119
70
8
0
VERTEX
8
2
10
0.8733914
20
0.8717818
70
8
0
VERTEX
8
2
10
0.8750343
20
0.8703169
70
8
0
VERTEX
8
2
10
0.876767
20
0.8689057
70
8
0
VERTEX
8
2
10
0.8786165
20
0.8675368
70
8
0
VERTEX
8
2
10
0.8805988
20
0.8662019
70
8
0
VERTEX
8
2
10
0.8826859
20
0.8649053
70
8
0
VERTEX
8
2
10
0.8848389
20
0.8636548
70
8
0
VERTEX
8
2
10
0.8870189
20
0.8624581
70
8
0
VERTEX
8
2
10
0.8891869
20
0.8613228
70
8
0
VERTEX
8
2
10
0.891304
20
0.8602566
70
8
0
VERTEX
8
2
10
0.8933313
20
0.8592672
70
8
0
VERTEX
8
2
10
0.8952297
20
0.8583623
70
8
0
VERTEX
8
2
10
0.8969724
20
0.857547
70
8
0
VERTEX
8
2
10
0.8985803
20
0.8568162
70
8
0
VERTEX
8
2
10
0.9000864
20
0.8561621
70
8
0
VERTEX
8
2
10
0.9015236
20
0.8555772
70
8
0
VERTEX
8
2
10
0.9029248
20
0.8550537
70
8
0
VERTEX
8
2
10
0.9043231
20
0.854584
70
8
0
VERTEX
8
2
10
0.9057513
20
0.8541603
70
8
0
VERTEX
8
2
10
0.9072424
20
0.853775
70
8
0
VERTEX
8
2
10
0.9088213
20
0.8534211
70
8
0
VERTEX
8
2
10
0.9104811
20
0.8530941
70
8
0
VERTEX
8
2
10
0.9122068
20
0.8527901
70
8
0
VERTEX
8
2
10
0.9139835
20
0.8525053
70
8
0
VERTEX
8
2
10
0.915796
20
0.8522359
70
8
0
VERTEX
8
2
10
0.9176296
20
0.851978
70
8
0
VERTEX
8
2
10
0.9194691
20
0.8517278
70
8
0
VERTEX
8
2
10
0.9212996
20
0.8514814
70
8
0
VERTEX
8
2
10
0.9231112
20
0.8512356
70
8
0
VERTEX
8
2
10
0.9249138
20
0.8509899
70
8
0
VERTEX
8
2
10
0.9267224
20
0.8507441
70
8
0
VERTEX
8
2
10
0.9285519
20
0.8504984
70
8
0
VERTEX
8
2
10
0.9304174
20
0.8502526
70
8
0
VERTEX
8
2
10
0.9323338
20
0.8500069
70
8
0
VERTEX
8
2
10
0.9343161
20
0.8497611
70
8
0
VERTEX
8
2
10
0.9363793
20
0.8495154
70
8
0
VERTEX
8
2
10
0.9385348
20
0.8492703
70
8
0
VERTEX
8
2
10
0.9407802
20
0.849029
70
8
0
VERTEX
8
2
10
0.9431095
20
0.8487954
70
8
0
VERTEX
8
2
10
0.9455166
20
0.8485733
70
8
0
VERTEX
8
2
10
0.9479956
20
0.8483666
70
8
0
VERTEX
8
2
10
0.9505405
20
0.8481791
70
8
0
VERTEX
8
2
10
0.9531453
20
0.8480146
70
8
0
VERTEX
8
2
10
0.955804
20
0.847877
70
8
0
VERTEX
8
2
10
0.9585286
20
0.8477689
70
8
0
VERTEX
8
2
10
0.9614026
20
0.8476876
70
8
0
VERTEX
8
2
10
0.9645276
20
0.8476294
70
8
0
VERTEX
8
2
10
0.968005
20
0.8475903
70
8
0
VERTEX
8
2
10
0.9719366
20
0.8475667
70
8
0
VERTEX
8
2
10
0.9764236
20
0.8475545
70
8
0
VERTEX
8
2
10
0.9815678
20
0.84755
70
8
0
VERTEX
8
2
10
0.9874705
20
0.8475494
70
8
0
SEQEND
8
2
0
POLYLINE
8
2
62
5
70
4
75
6
66
1
40
0
41
0
0
VERTEX
8
2
10
1.366278
20
1.073638
70
16
0
VERTEX
8
2
10
1.323339
20
1.075604
70
16
0
VERTEX
8
2
10
1.285001
20
1.085434
70
16
0
VERTEX
8
2
10
1.192989
20
1.109026
70
16
0
VERTEX
8
2
10
1.104045
20
1.13655
70
16
0
VERTEX
8
2
10
1.016634
20
1.15621
70
16
0
VERTEX
8
2
10
0.9368905
20
1.152278
70
16
0
VERTEX
8
2
10
0.8939518
20
1.122788
70
16
0
VERTEX
8
2
10
0.8525466
20
1.071672
70
16
0
VERTEX
8
2
10
0.8203424
20
0.9949986
70
16
0
VERTEX
8
2
10
0.8188089
20
0.9301208
70
16
0
VERTEX
8
2
10
0.8402783
20
0.8829371
70
16
0
VERTEX
8
2
10
0.8786165
20
0.8416514
70
16
0
VERTEX
8
2
10
0.9399575
20
0.8298554
70
16
0
VERTEX
8
2
10
0.9828962
20
0.8337874
70
16
0
VERTEX
8
2
10
0.9874705
20
0.8337874
70
16
0
VERTEX
8
2
10
1.366278
20
1.073638
70
8
0
VERTEX
8
2
10
1.351232
20
1.074511
70
8
0
VERTEX
8
2
10
1.338069
20
1.075642
70
8
0
VERTEX
8
2
10
1.326443
20
1.077016
70
8
0
VERTEX
8
2
10
1.316007
20
1.078615
70
8
0
VERTEX
8
2
10
1.306416
20
1.08042
70
8
0
VERTEX
8
2
10
1.297323
20
1.082416
70
8
0
VERTEX
8
2
10
1.288383
20
1.084585
70
8
0
VERTEX
8
2
10
1.27925
20
1.086909
70
8
0
VERTEX
8
2
10
1.269648
20
1.089372
70
8
0
VERTEX
8
2
10
1.25958
20
1.091964
70
8
0
VERTEX
8
2
10
1.24912
20
1.094676
70
8
0
VERTEX
8
2
10
1.23834
20
1.097496
70
8
0
VERTEX
8
2
10
1.227315
20
1.100417
70
8
0
VERTEX
8
2
10
1.216118
20
1.103428
70
8
0
VERTEX
8
2
10
1.204822
20
1.106519
70
8
0
VERTEX
8
2
10
1.193501
20
1.109681
70
8
0
VERTEX
8
2
10
1.182214
20
1.112903
70
8
0
VERTEX
8
2
10
1.170973
20
1.116163
70
8
0
VERTEX
8
2
10
1.159773
20
1.119438
70
8
0
VERTEX
8
2
10
1.148613
20
1.122706
70
8
0
VERTEX
8
2
10
1.137488
20
1.125943
70
8
0
VERTEX
8
2
10
1.126397
20
1.129126
70
8
0
VERTEX
8
2
10
1.115335
20
1.132233
70
8
0
VERTEX
8
2
10
1.1043
20
1.135239
70
8
0
VERTEX
8
2
10
1.093292
20
1.138122
70
8
0
VERTEX
8
2
10
1.08232
20
1.14085
70
8
0
VERTEX
8
2
10
1.071395
20
1.143395
70
8
0
VERTEX
8
2
10
1.060531
20
1.145725
70
8
0
VERTEX
8
2
10
1.049738
20
1.147808
70
8
0
VERTEX
8
2
10
1.03903
20
1.149616
70
8
0
VERTEX
8
2
10
1.028417
20
1.151116
70
8
0
VERTEX
8
2
10
1.017912
20
1.152278
70
8
0
VERTEX
8
2
10
1.007534
20
1.153076
70
8
0
VERTEX
8
2
10
0.997333
20
1.153501
70
8
0
VERTEX
8
2
10
0.9873656
20
1.153551
70
8
0
VERTEX
8
2
10
0.9776887
20
1.15322
70
8
0
VERTEX
8
2
10
0.9683592
20
1.152505
70
8
0
VERTEX
8
2
10
0.9594341
20
1.151402
70
8
0
VERTEX
8
2
10
0.9509703
20
1.149908
70
8
0
VERTEX
8
2
10
0.9430246
20
1.148018
70
8
0
VERTEX
8
2
10
0.935633
20
1.145731
70
8
0
VERTEX
8
2
10
0.9287476
20
1.143052
70
8
0
VERTEX
8
2
10
0.9222995
20
1.139989
70
8
0
VERTEX
8
2
10
0.9162198
20
1.13655
70
8
0
VERTEX
8
2
10
0.9104397
20
1.132742
70
8
0
VERTEX
8
2
10
0.9048901
20
1.128573
70
8
0
VERTEX
8
2
10
0.8995023
20
1.124051
70
8
0
VERTEX
8
2
10
0.8942074
20
1.119184
70
8
0
VERTEX
8
2
10
0.8889503
20
1.113975
70
8
0
VERTEX
8
2
10
0.8837323
20
1.108422
70
8
0
VERTEX
8
2
10
0.8785681
20
1.102515
70
8
0
VERTEX
8
2
10
0.8734728
20
1.096247
70
8
0
VERTEX
8
2
10
0.8684614
20
1.08961
70
8
0
VERTEX
8
2
10
0.8635488
20
1.082598
70
8
0
VERTEX
8
2
10
0.8587501
20
1.075201
70
8
0
VERTEX
8
2
10
0.8540801
20
1.067412
70
8
0
VERTEX
8
2
10
0.8495584
20
1.059238
70
8
0
VERTEX
8
2
10
0.8452224
20
1.050737
70
8
0
VERTEX
8
2
10
0.841114
20
1.041983
70
8
0
VERTEX
8
2
10
0.8372752
20
1.033049
70
8
0
VERTEX
8
2
10
0.8337478
20
1.024006
70
8
0
VERTEX
8
2
10
0.8305739
20
1.01493
70
8
0
VERTEX
8
2
10
0.8277954
20
1.005891
70
8
0
VERTEX
8
2
10
0.8254542
20
0.9969645
70
8
0
VERTEX
8
2
10
0.8235827
20
0.9882117
70
8
0
VERTEX
8
2
10
0.8221755
20
0.9796546
70
8
0
VERTEX
8
2
10
0.8212175
20
0.9713049
70
8
0
VERTEX
8
2
10
0.8206939
20
0.9631741
70
8
0
VERTEX
8
2
10
0.8205895
20
0.9552736
70
8
0
VERTEX
8
2
10
0.8208896
20
0.9476151
70
8
0
VERTEX
8
2
10
0.8215789
20
0.94021
70
8
0
VERTEX
8
2
10
0.8226427
20
0.9330698
70
8
0
VERTEX
8
2
10
0.8240664
20
0.9262004
70
8
0
VERTEX
8
2
10
0.8258376
20
0.9195844
70
8
0
VERTEX
8
2
10
0.8279442
20
0.9131988
70
8
0
VERTEX
8
2
10
0.8303743
20
0.9070205
70
8
0
VERTEX
8
2
10
0.8331158
20
0.9010265
70
8
0
VERTEX
8
2
10
0.8361569
20
0.8951938
70
8
0
VERTEX
8
2
10
0.8394856
20
0.8894994
70
8
0
VERTEX
8
2
10
0.8430897
20
0.8839201
70
8
0
VERTEX
8
2
10
0.8469615
20
0.8784445
70
8
0
VERTEX
8
2
10
0.8511088
20
0.8731072
70
8
0
VERTEX
8
2
10
0.8555437
20
0.8679542
70
8
0
VERTEX
8
2
10
0.860278
20
0.8630315
70
8
0
VERTEX
8
2
10
0.8653239
20
0.8583853
70
8
0
VERTEX
8
2
10
0.8706932
20
0.8540617
70
8
0
VERTEX
8
2
10
0.876398
20
0.8501067
70
8
0
VERTEX
8
2
10
0.8824503
20
0.8465663
70
8
0
VERTEX
8
2
10
0.8888534
20
0.8434753
70
8
0
VERTEX
8
2
10
0.8955771
20
0.840822
70
8
0
VERTEX
8
2
10
0.9025823
20
0.8385833
70
8
0
VERTEX
8
2
10
0.9098301
20
0.8367364
70
8
0
VERTEX
8
2
10
0.9172816
20
0.835258
70
8
0
VERTEX
8
2
10
0.9248978
20
0.8341253
70
8
0
VERTEX
8
2
10
0.9326398
20
0.8333151
70
8
0
VERTEX
8
2
10
0.9404687
20
0.8328044
70
8
0
VERTEX
8
2
10
0.948318
20
0.8325644
70
8
0
VERTEX
8
2
10
0.9560112
20
0.8325433
70
8
0
VERTEX
8
2
10
0.9633444
20
0.8326834
70
8
0
VERTEX
8
2
10
0.9701135
20
0.8329273
70
8
0
VERTEX
8
2
10
0.9761147
20
0.8332172
70
8
0
VERTEX
8
2
10
0.9811439
20
0.8334956
70
8
0
VERTEX
8
2
10
0.9849972
20
0.8337048
70
8
0
VERTEX
8
2
10
0.9874705
20
0.8337874
70
8
0
SEQEND
8
2
0
ARC
8
5
62
7
10
1.095743
20
1.464391
40
1.433069
50
276.2951
51
277.6315
0
ARC
8
1
62
7
10
1.11019
20
1.101019
40
0.1880175
50
318.1915
51
323.1019
0
ARC
8
1
62
7
10
1.262553
20
1.000904
40
0.01154807
50
57.41007
51
237.4101
0
ARC
8
4
62
5
10
1.251887
20
0.8971741
40
0.04244389
50
265.2363
51
97.24618
0
ARC
8
3
62
7
10
1.248414
20
0.6895341
40
0.01417357
50
50.89926
51
308.5312
0
LINE
8
5
62
7
10
1.254512
20
0.8547215
11
1.295853
21
0.6977913
0
ARC
8
1
62
7
10
1.11019
20
1.101019
40
0.1566593
50
333.536
51
339.7839
0
LINE
8
1
62
7
10
1.253107
20
1.048537
11
1.257501
21
1.046952
0
LINE
8
5
62
7
10
1.253353
20
1.324751
11
1.418024
21
1.933733
0
ARC
8
1
62
7
10
1.093773
20
1.095033
40
0.1741287
50
18.83354
51
24.51038
0
ARC
8
1
62
7
10
1.256302
20
1.138352
40
0.01154807
50
103.7402
51
283.7402
0
LINE
8
1
62
7
10
1.253559
20
1.149569
11
1.25799
21
1.151046
0
ARC
8
1
62
7
10
1.249239
20
1.219703
40
0.01154807
50
202.277
51
309.752
0
LINE
8
4
62
5
10
1.212462
20
0.772355
11
1.235415
21
0.7062685
0
ARC
8
4
62
5
10
1.198628
20
0.7356953
40
0.0479406
50
123.1607
51
320.0594
0
ARC
8
2
62
5
10
1.198628
20
0.7356953
40
0.04196369
50
324.8141
51
69.12215
0
LINE
8
5
62
7
10
0.9869937
20
0.8269321
11
0.6126581
21
0.3649015
0
LINE
8
5
62
7
10
0.8347236
20
0.8979506
11
0.4794095
21
0.4762859
0
LINE
8
5
62
7
10
0.822065
20
0.9793242
11
0.359479
21
0.6190831
0
POLYLINE
8
5
62
7
70
1
66
1
40
0
41
0
0
VERTEX
8
5
10
0.1183511
20
0.7270402
0
VERTEX
8
5
10
0.09734593
20
0.7197763
0
VERTEX
8
5
10
0.07864676
20
0.773847
0
VERTEX
8
5
10
0.09965216
20
0.7811114
0
SEQEND
8
5
0
POLYLINE
8
5
62
7
70
0
66
1
40
0
41
0
0
VERTEX
8
5
10
0.1196769
20
0.7277738
0
VERTEX
8
5
10
0.1245838
20
0.7294704
0
VERTEX
8
5
10
0.1060542
20
0.783051
0
VERTEX
8
5
10
0.1011478
20
0.7813539
0
SEQEND
8
5
0
POLYLINE
8
5
62
7
70
1
66
1
40
0
41
0
0
VERTEX
8
5
10
0.1535979
20
0.7052111
0
VERTEX
8
5
10
0.1140133
20
0.8196763
0
VERTEX
8
5
10
0.1330901
20
0.8262731
0
VERTEX
8
5
10
0.172675
20
0.7118081
0
SEQEND
8
5
0
POLYLINE
8
5
62
7
70
0
66
1
40
0
41
0
0
VERTEX
8
5
10
0.1741427
20
0.7123157
0
VERTEX
8
5
10
0.1770776
20
0.7133307
0
VERTEX
8
5
10
0.1374928
20
0.8277959
0
VERTEX
8
5
10
0.1330901
20
0.8262731
0
SEQEND
8
5
0
LINE
8
5
62
7
10
1.057454
20
0.8237929
11
0.7783552
21
0.2763673
0
LINE
8
5
62
7
10
1.082807
20
0.8228354
11
1.200039
21
0.2177846
0
LINE
8
5
62
7
10
1.02428
20
0.8228979
11
1.013595
21
0.2141711
0
ARC
8
3
62
7
10
1.128855
20
0.7671396
40
0.01483664
50
302.6053
51
23.67824
0
POLYLINE
8
5
62
7
70
0
66
1
40
0
41
0
0
VERTEX
8
5
10
1.252938
20
0.03191736
0
VERTEX
8
5
10
1.255312
20
0.03507558
0
VERTEX
8
5
10
1.250739
20
0.06407037
0
VERTEX
8
5
10
1.183639
20
0.0566285
0
VERTEX
8
5
10
1.182075
20
0.05348495
0
SEQEND
8
5
0
POLYLINE
8
5
62
7
70
1
66
1
40
0
41
0
0
VERTEX
8
5
10
1.208217
20
0.02489904
0
VERTEX
8
5
10
1.206298
20
0.04148021
0
VERTEX
8
5
10
1.182023
20
0.04000345
0
VERTEX
8
5
10
1.180988
20
0.05244675
0
VERTEX
8
5
10
1.247297
20
0.05883601
0
VERTEX
8
5
10
1.251852
20
0.03087965
0
SEQEND
8
5
0
ARC
8
3
62
7
10
1.2313
20
0.666254
40
0.01483664
50
51.56025
51
132.6332
0
ARC
8
3
62
7
10
1.230802
20
0.71244
40
0.01483664
50
262.9511
51
309.6749
0
POLYLINE
8
5
62
7
70
0
66
1
40
0
41
0
0
VERTEX
8
5
10
0.6945973
20
0.1049599
0
VERTEX
8
5
10
0.6931081
20
0.1086186
0
VERTEX
8
5
10
0.7049232
20
0.135489
0
VERTEX
8
5
10
0.7679075
20
0.1111851
0
VERTEX
8
5
10
0.7686177
20
0.1077463
0
SEQEND
8
5
0
POLYLINE
8
5
62
7
70
1
66
1
40
0
41
0
0
VERTEX
8
5
10
0.7349824
20
0.08705261
0
VERTEX
8
5
10
0.7410656
20
0.1025967
0
VERTEX
8
5
10
0.7641615
20
0.09497967
0
VERTEX
8
5
10
0.7683345
20
0.1067477
0
VERTEX
8
5
10
0.7058466
20
0.1298324
0
VERTEX
8
5
10
0.6943145
20
0.1039604
0
SEQEND
8
5
0
POLYLINE
8
5
62
7
70
0
66
1
40
0
41
0
0
VERTEX
8
5
10
0.3477286
20
0.4332415
0
VERTEX
8
5
10
0.3501845
20
0.4351422
0
VERTEX
8
5
10
0.2760547
20
0.5309233
0
VERTEX
8
5
10
0.2723704
20
0.5280716
0
SEQEND
8
5
0
POLYLINE
8
5
62
7
70
1
66
1
40
0
41
0
0
VERTEX
8
5
10
0.3305374
20
0.4199366
0
VERTEX
8
5
10
0.2564076
20
0.5157177
0
VERTEX
8
5
10
0.2723704
20
0.5280716
0
VERTEX
8
5
10
0.3465002
20
0.4322907
0
SEQEND
8
5
0
POLYLINE
8
5
62
7
70
0
66
1
40
0
41
0
0
VERTEX
8
5
10
0.2911802
20
0.430459
0
VERTEX
8
5
10
0.295286
20
0.4336364
0
VERTEX
8
5
10
0.2605858
20
0.478471
0
VERTEX
8
5
10
0.256481
20
0.4752933
0
SEQEND
8
5
0
POLYLINE
8
5
62
7
70
1
66
1
40
0
41
0
0
VERTEX
8
5
10
0.2901588
20
0.4293398
0
VERTEX
8
5
10
0.2725819
20
0.4157369
0
VERTEX
8
5
10
0.2375649
20
0.4609818
0
VERTEX
8
5
10
0.2551411
20
0.4745852
0
SEQEND
8
5
0
ARC
8
5
62
7
10
1.075938
20
1.074509
40
1.028951
50
219.3771
51
221.3965
0
POLYLINE
8
5
62
7
70
0
66
1
40
0
41
0
0
VERTEX
8
5
10
0.3283711
20
0.356969
0
VERTEX
8
5
10
0.3323205
20
0.3568851
0
VERTEX
8
5
10
0.3531962
20
0.3775209
0
VERTEX
8
5
10
0.3079918
20
0.4276642
0
VERTEX
8
5
10
0.3045269
20
0.4270989
0
SEQEND
8
5
0
POLYLINE
8
5
62
7
70
1
66
1
40
0
41
0
0
VERTEX
8
5
10
0.2972172
20
0.3882898
0
VERTEX
8
5
10
0.3095613
20
0.3995256
0
VERTEX
8
5
10
0.2941945
20
0.4183747
0
VERTEX
8
5
10
0.3036948
20
0.4264776
0
VERTEX
8
5
10
0.3475826
20
0.3763629
0
VERTEX
8
5
10
0.3275397
20
0.3563475
0
SEQEND
8
5
0
POLYLINE
8
5
62
7
70
0
66
1
40
0
41
0
0
VERTEX
8
5
10
0.3961566
20
0.3811268
0
VERTEX
8
5
10
0.3997341
20
0.384889
0
VERTEX
8
5
10
0.4408212
20
0.3458242
0
VERTEX
8
5
10
0.4372447
20
0.3420621
0
SEQEND
8
5
0
POLYLINE
8
5
62
7
70
1
66
1
40
0
41
0
0
VERTEX
8
5
10
0.3949404
20
0.3802239
0
VERTEX
8
5
10
0.3796256
20
0.3641161
0
VERTEX
8
5
10
0.4210888
20
0.3246941
0
VERTEX
8
5
10
0.4364045
20
0.3408016
0
SEQEND
8
5
0
POLYLINE
8
5
62
7
70
0
66
1
40
0
41
0
0
VERTEX
8
5
10
0.3961511
20
0.381133
0
VERTEX
8
5
10
0.3997281
20
0.384895
0
VERTEX
8
5
10
0.4408143
20
0.3458299
0
VERTEX
8
5
10
0.4372383
20
0.3420679
0
SEQEND
8
5
0
POLYLINE
8
5
62
7
70
1
66
1
40
0
41
0
0
VERTEX
8
5
10
0.394935
20
0.3802296
0
VERTEX
8
5
10
0.3796197
20
0.3641223
0
VERTEX
8
5
10
0.4210823
20
0.3246998
0
VERTEX
8
5
10
0.4363976
20
0.3408073
0
SEQEND
8
5
0
POLYLINE
8
5
62
7
70
0
66
1
40
0
41
0
0
VERTEX
8
5
10
0.364822
20
0.3504578
0
VERTEX
8
5
10
0.3684021
20
0.3542172
0
VERTEX
8
5
10
0.4094566
20
0.3151194
0
VERTEX
8
5
10
0.4058769
20
0.3113598
0
SEQEND
8
5
0
ARC
8
5
62
7
10
1.085676
20
1.065311
40
1.028951
50
227.9326
51
229.3101
0
ARC
8
5
62
7
10
1.085676
20
1.065311
40
1.028951
50
231.8952
51
233.932
0
POLYLINE
8
5
62
7
70
1
66
1
40
0
41
0
0
VERTEX
8
5
10
0.3636048
20
0.3495561
0
VERTEX
8
5
10
0.3482764
20
0.3334614
0
VERTEX
8
5
10
0.3897069
20
0.2940051
0
VERTEX
8
5
10
0.4050353
20
0.3101002
0
SEQEND
8
5
0
POLYLINE
8
5
62
7
70
0
66
1
40
0
41
0
0
VERTEX
8
5
10
0.4119452
20
0.2780334
0
VERTEX
8
5
10
0.4116367
20
0.2819716
0
VERTEX
8
5
10
0.4310482
20
0.3039896
0
VERTEX
8
5
10
0.4836877
20
0.2617196
0
VERTEX
8
5
10
0.4833212
20
0.2582275
0
SEQEND
8
5
0
POLYLINE
8
5
62
7
70
1
66
1
40
0
41
0
0
VERTEX
8
5
10
0.4449921
20
0.2487163
0
VERTEX
8
5
10
0.4555057
20
0.2616812
0
VERTEX
8
5
10
0.4752012
20
0.2474147
0
VERTEX
8
5
10
0.4827483
20
0.2573618
0
VERTEX
8
5
10
0.4302118
20
0.2983195
0
VERTEX
8
5
10
0.4113722
20
0.277167
0
SEQEND
8
5
0
ARC
8
5
62
7
10
1.375411
20
1.373753
40
1.451947
50
224.0377
51
225.3654
0
POLYLINE
8
5
62
7
70
0
66
1
40
0
41
0
0
VERTEX
8
5
10
0.5882393
20
0.2322027
0
VERTEX
8
5
10
0.5899971
20
0.2347628
0
VERTEX
8
5
10
0.4901455
20
0.3033115
0
VERTEX
8
5
10
0.4875093
20
0.2994715
0
SEQEND
8
5
0
POLYLINE
8
5
62
7
70
1
66
1
40
0
41
0
0
VERTEX
8
5
10
0.5759354
20
0.2142812
0
VERTEX
8
5
10
0.4760852
20
0.2828304
0
VERTEX
8
5
10
0.4875093
20
0.2994715
0
VERTEX
8
5
10
0.5873604
20
0.2309219
0
SEQEND
8
5
0
POLYLINE
8
5
62
7
70
0
66
1
40
0
41
0
0
VERTEX
8
5
10
0.5352457
20
0.2122742
0
VERTEX
8
5
10
0.5381842
20
0.2165543
0
VERTEX
8
5
10
0.4914446
20
0.2486416
0
VERTEX
8
5
10
0.4885066
20
0.2443618
0
SEQEND
8
5
0
ARC
8
5
62
7
10
1.085676
20
1.065311
40
1.028951
50
237.1688
51
239.1882
0
POLYLINE
8
5
62
7
70
1
66
1
40
0
41
0
0
VERTEX
8
5
10
0.5346153
20
0.2108966
0
VERTEX
8
5
10
0.5220354
20
0.1925733
0
VERTEX
8
5
10
0.4748681
20
0.2249545
0
VERTEX
8
5
10
0.4874476
20
0.2432782
0
SEQEND
8
5
0
POLYLINE
8
5
62
7
70
0
66
1
40
0
41
0
0
VERTEX
8
5
10
0.5931132
20
0.1536633
0
VERTEX
8
5
10
0.5968996
20
0.1547901
0
VERTEX
8
5
10
0.6104715
20
0.1808176
0
VERTEX
8
5
10
0.5521072
20
0.21475
0
VERTEX
8
5
10
0.5489808
20
0.213153
0
SEQEND
8
5
0
POLYLINE
8
5
62
7
70
1
66
1
40
0
41
0
0
VERTEX
8
5
10
0.5538786
20
0.1739664
0
VERTEX
8
5
10
0.5621997
20
0.1884368
0
VERTEX
8
5
10
0.5418089
20
0.2016892
0
VERTEX
8
5
10
0.5483783
20
0.2123074
0
VERTEX
8
5
10
0.6054798
20
0.1779996
0
VERTEX
8
5
10
0.592512
20
0.1528173
0
SEQEND
8
5
0
POLYLINE
8
5
62
7
70
0
66
1
40
0
41
0
0
VERTEX
8
5
10
0.6482702
20
0.1984017
0
VERTEX
8
5
10
0.6505368
20
0.2030717
0
VERTEX
8
5
10
0.7015405
20
0.1783166
0
VERTEX
8
5
10
0.6992746
20
0.1736468
0
SEQEND
8
5
0
POLYLINE
8
5
62
7
70
1
66
1
40
0
41
0
0
VERTEX
8
5
10
0.6473852
20
0.1971723
0
VERTEX
8
5
10
0.6376804
20
0.1771766
0
VERTEX
8
5
10
0.6891509
20
0.1521951
0
VERTEX
8
5
10
0.6988562
20
0.1721905
0
SEQEND
8
5
0
POLYLINE
8
5
62
7
70
0
66
1
40
0
41
0
0
VERTEX
8
5
10
0.6482628
20
0.1984057
0
VERTEX
8
5
10
0.6505297
20
0.203076
0
VERTEX
8
5
10
0.7015329
20
0.1783202
0
VERTEX
8
5
10
0.6992665
20
0.1736499
0
SEQEND
8
5
0
POLYLINE
8
5
62
7
70
1
66
1
40
0
41
0
0
VERTEX
8
5
10
0.6473776
20
0.1971759
0
VERTEX
8
5
10
0.6376727
20
0.1771806
0
VERTEX
8
5
10
0.6891428
20
0.1521982
0
VERTEX
8
5
10
0.6988481
20
0.172194
0
SEQEND
8
5
0
POLYLINE
8
5
62
7
70
0
66
1
40
0
41
0
0
VERTEX
8
5
10
0.6277192
20
0.1596701
0
VERTEX
8
5
10
0.6299894
20
0.164339
0
VERTEX
8
5
10
0.6809724
20
0.139542
0
VERTEX
8
5
10
0.6787022
20
0.1348735
0
SEQEND
8
5
0
ARC
8
5
62
7
10
1.097667
20
1.059556
40
1.028951
50
245.5972
51
246.9746
0
POLYLINE
8
5
62
7
70
1
66
1
40
0
41
0
0
VERTEX
8
5
10
0.626833
20
0.1584417
0
VERTEX
8
5
10
0.617111
20
0.1384545
0
VERTEX
8
5
10
0.668561
20
0.1134299
0
VERTEX
8
5
10
0.6782826
20
0.1334176
0
SEQEND
8
5
0
ARC
8
5
62
7
10
1.314508
20
1.133084
40
1.204887
50
233.4402
51
234.8977
0
POLYLINE
8
5
62
7
70
1
66
1
40
0
41
0
0
VERTEX
8
5
10
0.1656068
20
0.6214852
0
VERTEX
8
5
10
0.1460937
20
0.6108436
0
VERTEX
8
5
10
0.1734861
20
0.5606145
0
VERTEX
8
5
10
0.1929997
20
0.5712566
0
SEQEND
8
5
0
POLYLINE
8
5
62
7
70
0
66
1
40
0
41
0
0
VERTEX
8
5
10
0.1938702
20
0.5307488
0
VERTEX
8
5
10
0.194779
20
0.5345928
0
VERTEX
8
5
10
0.2199901
20
0.5496265
0
VERTEX
8
5
10
0.2571962
20
0.4932935
0
VERTEX
8
5
10
0.2557805
20
0.4900808
0
SEQEND
8
5
0
POLYLINE
8
5
62
7
70
1
66
1
40
0
41
0
0
VERTEX
8
5
10
0.2163788
20
0.4927356
0
VERTEX
8
5
10
0.2303504
20
0.5018682
0
VERTEX
8
5
10
0.2447446
20
0.4822664
0
VERTEX
8
5
10
0.2549704
20
0.4894311
0
VERTEX
8
5
10
0.2174615
20
0.5444831
0
VERTEX
8
5
10
0.1930603
20
0.5300989
0
SEQEND
8
5
0
ARC
8
5
62
7
10
1.075938
20
1.074509
40
1.028951
50
214.1034
51
216.1402
0
ARC
8
5
62
7
10
1.83417
20
1.498076
40
1.89708
50
209.4376
51
210.452
0
POLYLINE
8
5
62
7
70
1
66
1
40
0
41
0
0
VERTEX
8
5
10
0.1119031
20
0.6858899
0
VERTEX
8
5
10
0.1271938
20
0.6925849
0
VERTEX
8
5
10
0.1186665
20
0.7153603
0
VERTEX
8
5
10
0.1302601
20
0.7199976
0
VERTEX
8
5
10
0.1558045
20
0.6584744
0
VERTEX
8
5
10
0.1304117
20
0.6459245
0
SEQEND
8
5
0
POLYLINE
8
5
62
7
70
0
66
1
40
0
41
0
0
VERTEX
8
5
10
0.1313983
20
0.6462476
0
VERTEX
8
5
10
0.1351126
20
0.6449043
0
VERTEX
8
5
10
0.1614939
20
0.6577753
0
VERTEX
8
5
10
0.1347109
20
0.7197465
0
VERTEX
8
5
10
0.1312469
20
0.7203197
0
SEQEND
8
5
0
ARC
8
5
62
7
10
1.069256
20
1.086863
40
1.028951
50
200.7158
51
202.7352
0
POLYLINE
8
5
62
7
70
0
66
1
40
0
41
0
0
VERTEX
8
5
10
0.2062491
20
0.6415994
0
VERTEX
8
5
10
0.2108041
20
0.6440887
0
VERTEX
8
5
10
0.23799
20
0.5943374
0
VERTEX
8
5
10
0.233435
20
0.5918481
0
SEQEND
8
5
0
POLYLINE
8
5
62
7
70
1
66
1
40
0
41
0
0
VERTEX
8
5
10
0.2048148
20
0.6411113
0
VERTEX
8
5
10
0.1853107
20
0.6304531
0
VERTEX
8
5
10
0.2127446
20
0.5802473
0
VERTEX
8
5
10
0.2322494
20
0.5909049
0
SEQEND
8
5
0
POLYLINE
8
5
62
7
70
0
66
1
40
0
41
0
0
VERTEX
8
5
10
0.2062453
20
0.6416067
0
VERTEX
8
5
10
0.210801
20
0.6440961
0
VERTEX
8
5
10
0.2379854
20
0.594345
0
VERTEX
8
5
10
0.2334302
20
0.5918557
0
SEQEND
8
5
0
POLYLINE
8
5
62
7
70
1
66
1
40
0
41
0
0
VERTEX
8
5
10
0.2048105
20
0.6411185
0
VERTEX
8
5
10
0.1853069
20
0.6304612
0
VERTEX
8
5
10
0.21274
20
0.5802545
0
VERTEX
8
5
10
0.2322451
20
0.590912
0
SEQEND
8
5
0
POLYLINE
8
5
62
7
70
0
66
1
40
0
41
0
0
VERTEX
8
5
10
0.1670412
20
0.6219718
0
VERTEX
8
5
10
0.1715993
20
0.6244573
0
VERTEX
8
5
10
0.1987437
20
0.5746848
0
VERTEX
8
5
10
0.1941863
20
0.5721986
0
SEQEND
8
5
0
ARC
8
5
62
7
10
1.653644
20
1.332244
40
1.661297
50
204.3197
51
205.5609
0
POLYLINE
8
5
62
7
70
0
66
1
40
0
41
0
0
VERTEX
8
5
10
0.8764862
20
0.1147851
0
VERTEX
8
5
10
0.8773841
20
0.1177581
0
VERTEX
8
5
10
0.7614402
20
0.1527756
0
VERTEX
8
5
10
0.7600936
20
0.1483163
0
SEQEND
8
5
0
POLYLINE
8
5
62
7
70
1
66
1
40
0
41
0
0
VERTEX
8
5
10
0.870201
20
0.0939751
0
VERTEX
8
5
10
0.7542571
20
0.1289934
0
VERTEX
8
5
10
0.7600936
20
0.1483163
0
VERTEX
8
5
10
0.8760375
20
0.113298
0
SEQEND
8
5
0
POLYLINE
8
5
62
7
70
0
66
1
40
0
41
0
0
VERTEX
8
5
10
0.8320385
20
0.07971612
0
VERTEX
8
5
10
0.8335391
20
0.08468595
0
VERTEX
8
5
10
0.7792672
20
0.1010773
0
VERTEX
8
5
10
0.7777661
20
0.09610751
0
SEQEND
8
5
0
POLYLINE
8
5
62
7
70
1
66
1
40
0
41
0
0
VERTEX
8
5
10
0.8318557
20
0.07821181
0
VERTEX
8
5
10
0.8254291
20
0.05693522
0
VERTEX
8
5
10
0.7706596
20
0.07347694
0
VERTEX
8
5
10
0.7770857
20
0.09475365
0
SEQEND
8
5
0
ARC
8
5
62
7
10
1.097667
20
1.059556
40
1.028951
50
249.5597
51
251.5965
0
ARC
8
5
62
7
10
1.097667
20
1.059556
40
1.028951
50
254.8334
51
256.8528
0
POLYLINE
8
5
62
7
70
0
66
1
40
0
41
0
0
VERTEX
8
5
10
0.9049629
20
0.04142824
0
VERTEX
8
5
10
0.9082283
20
0.04365078
0
VERTEX
8
5
10
0.9132622
20
0.07256904
0
VERTEX
8
5
10
0.8473536
20
0.08719137
0
VERTEX
8
5
10
0.844859
20
0.084721
0
SEQEND
8
5
0
POLYLINE
8
5
62
7
70
1
66
1
40
0
41
0
0
VERTEX
8
5
10
0.8614169
20
0.04886869
0
VERTEX
8
5
10
0.8649546
20
0.06518117
0
VERTEX
8
5
10
0.841504
20
0.07162145
0
VERTEX
8
5
10
0.8445419
20
0.08373252
0
VERTEX
8
5
10
0.9093617
20
0.06836942
0
VERTEX
8
5
10
0.9046456
20
0.04043916
0
SEQEND
8
5
0
ARC
8
5
62
7
10
1.261955
20
1.624758
40
1.615009
50
257.3917
51
258.6506
0
POLYLINE
8
5
62
7
70
0
66
1
40
0
41
0
0
VERTEX
8
5
10
1.202301
20
0.09215084
0
VERTEX
8
5
10
1.202191
20
0.09525445
0
VERTEX
8
5
10
1.08115
20
0.09095946
0
VERTEX
8
5
10
1.081316
20
0.08630398
0
SEQEND
8
5
0
POLYLINE
8
5
62
7
70
1
66
1
40
0
41
0
0
VERTEX
8
5
10
1.203072
20
0.07042578
0
VERTEX
8
5
10
1.082032
20
0.06613126
0
VERTEX
8
5
10
1.081316
20
0.08630398
0
VERTEX
8
5
10
1.202356
20
0.09059849
0
SEQEND
8
5
0
POLYLINE
8
5
62
7
70
0
66
1
40
0
41
0
0
VERTEX
8
5
10
0.9524468
20
0.09759977
0
VERTEX
8
5
10
0.9530841
20
0.1027518
0
VERTEX
8
5
10
1.009349
20
0.09579125
0
VERTEX
8
5
10
1.008712
20
0.09063974
0
SEQEND
8
5
0
POLYLINE
8
5
62
7
70
1
66
1
40
0
41
0
0
VERTEX
8
5
10
0.9520062
20
0.09615055
0
VERTEX
8
5
10
0.9492775
20
0.07409242
0
VERTEX
8
5
10
1.006057
20
0.06706801
0
VERTEX
8
5
10
1.008787
20
0.0891265
0
SEQEND
8
5
0
POLYLINE
8
5
62
7
70
0
66
1
40
0
41
0
0
VERTEX
8
5
10
0.9524387
20
0.09760144
0
VERTEX
8
5
10
0.953076
20
0.1027534
0
VERTEX
8
5
10
1.009341
20
0.0957922
0
VERTEX
8
5
10
1.008704
20
0.09064022
0
SEQEND
8
5
0
POLYLINE
8
5
62
7
70
1
66
1
40
0
41
0
0
VERTEX
8
5
10
0.9519981
20
0.09615174
0
VERTEX
8
5
10
0.9492689
20
0.07409373
0
VERTEX
8
5
10
1.006049
20
0.06706896
0
VERTEX
8
5
10
1.008778
20
0.08912697
0
SEQEND
8
5
0
POLYLINE
8
5
62
7
70
0
66
1
40
0
41
0
0
VERTEX
8
5
10
0.9455024
20
0.05430761
0
VERTEX
8
5
10
0.9461445
20
0.05945912
0
VERTEX
8
5
10
1.002402
20
0.05245236
0
VERTEX
8
5
10
1.001762
20
0.04730085
0
SEQEND
8
5
0
ARC
8
5
62
7
10
1.127346
20
1.705857
40
1.677071
50
265.6428
51
266.7217
0
ARC
8
5
62
7
10
1.105473
20
1.057734
40
1.028951
50
268.3974
51
270.4342
0
POLYLINE
8
5
62
7
70
1
66
1
40
0
41
0
0
VERTEX
8
5
10
1.170764
20
0.04312554
0
VERTEX
8
5
10
1.171552
20
0.02091352
0
VERTEX
8
5
10
1.114375
20
0.01888482
0
VERTEX
8
5
10
1.113587
20
0.04109696
0
SEQEND
8
5
0
POLYLINE
8
5
62
7
70
0
66
1
40
0
41
0
0
VERTEX
8
5
10
1.032221
20
0.0241218
0
VERTEX
8
5
10
1.029631
20
0.02710357
0
VERTEX
8
5
10
1.032136
20
0.05634955
0
VERTEX
8
5
10
1.099594
20
0.0536845
0
VERTEX
8
5
10
1.101377
20
0.05065933
0
SEQEND
8
5
0
POLYLINE
8
5
62
7
70
1
66
1
40
0
41
0
0
VERTEX
8
5
10
1.076225
20
0.02021352
0
VERTEX
8
5
10
1.076964
20
0.03688911
0
VERTEX
8
5
10
1.101282
20
0.03713766
0
VERTEX
8
5
10
1.101432
20
0.04962257
0
VERTEX
8
5
10
1.034837
20
0.05129448
0
VERTEX
8
5
10
1.032276
20
0.02308456
0
SEQEND
8
5
0
POLYLINE
8
5
62
7
70
1
66
1
40
0
41
0
0
VERTEX
8
5
10
0.9439543
20
0.05285874
0
VERTEX
8
5
10
0.9412068
20
0.03080288
0
VERTEX
8
5
10
0.9979812
20
0.02373127
0
VERTEX
8
5
10
1.000728
20
0.0457876
0
SEQEND
8
5
0
ARC
8
5
62
7
10
1.105528
20
1.057734
40
1.028951
50
273.6711
51
275.6905
0
POLYLINE
8
5
62
7
70
0
66
1
40
0
41
0
0
VERTEX
8
5
10
1.169979
20
0.04258481
0
VERTEX
8
5
10
1.169795
20
0.04777327
0
VERTEX
8
5
10
1.113137
20
0.04576269
0
VERTEX
8
5
10
1.113321
20
0.0405747
0
SEQEND
8
5
0
ARC
8
3
62
7
10
1.196921
20
0.6658821
40
0.01483664
50
48.60532
51
129.6782
0
ARC
8
3
62
7
10
1.151769
20
0.6803901
40
0.01483664
50
11.60532
51
92.67824
0
ARC
8
3
62
7
10
1.125817
20
0.7225437
40
0.01483664
50
330.5603
51
51.63317
0
CIRCLE
8
3
62
7
10
1.145715
20
0.7433514
40
0.004213074
0
CIRCLE
8
3
62
7
10
1.151621
20
0.7093052
40
0.004213074
0
ARC
8
3
62
7
10
1.21386
20
0.6891617
40
0.01417357
50
230.3229
51
30.50969
0
ARC
8
3
62
7
10
1.21386
20
0.6891617
40
0.004213074
50
192.4062
51
25.51439
0
ARC
8
3
62
7
10
1.179306
20
0.6889219
40
0.004213074
50
118.2215
51
4.174827
0
ARC
8
3
62
7
10
1.179308
20
0.6887869
40
0.01417357
50
138.0794
51
307.8403
0
ARC
8
3
62
7
10
1.151488
20
0.7092819
40
0.01417357
50
149.8758
51
324.371
0
ARC
8
3
62
7
10
1.145715
20
0.7433514
40
0.01417357
50
47.48945
51
229.1595
0
CIRCLE
8
2
62
5
10
1.198628
20
0.7356953
40
0.01090454
0
CIRCLE
8
3
62
7
10
1.248412
20
0.6896691
40
0.004213074
0
ARC
8
1
62
7
10
1.11019
20
1.101019
40
0.1239443
50
8.284212
51
12.76566
0
POLYLINE
8
5
62
7
70
1
66
1
40
0
41
0
0
VERTEX
8
5
10
0.07641135
20
1.156087
0
VERTEX
8
5
10
0.07715593
20
1.034973
0
VERTEX
8
5
10
0.09734069
20
1.035097
0
VERTEX
8
5
10
0.09659611
20
1.156211
0
SEQEND
8
5
0
POLYLINE
8
5
62
7
70
0
66
1
40
0
41
0
0
VERTEX
8
5
10
0.09814917
20
1.156221
0
VERTEX
8
5
10
0.1012546
20
1.15624
0
VERTEX
8
5
10
0.1019991
20
1.035125
0
VERTEX
8
5
10
0.09734069
20
1.035097
0
SEQEND
8
5
0
ARC
8
5
62
7
10
1.06584
20
1.100174
40
1.028951
50
176.6939
51
178.7133
0
ARC
8
1
62
7
10
1.050834
20
1.120255
40
0.01154807
50
249.83
51
69.82991
0
ARC
8
1
62
7
10
1.024168
20
1.121724
40
0.01154807
50
257.6177
51
77.61761
0
CIRCLE
8
3
62
7
10
0.9606293
20
1.127164
40
0.004213074
0
ARC
8
3
62
7
10
0.9606293
20
1.127164
40
0.01417357
50
128.1415
51
23.5373
0
ARC
8
1
62
7
10
0.9964682
20
1.134754
40
0.01154807
50
254.4098
51
23.01821
0
POLYLINE
8
2
62
1
70
4
75
6
66
1
40
0
41
0
0
VERTEX
8
2
10
1.072898
20
1.130618
70
16
0
VERTEX
8
2
10
1.054512
20
1.110428
70
16
0
VERTEX
8
2
10
1.056341
20
1.086983
70
16
0
VERTEX
8
2
10
1.061827
20
1.07526
70
16
0
VERTEX
8
2
10
1.083173
20
1.062384
70
16
0
VERTEX
8
2
10
1.072898
20
1.130618
70
8
0
VERTEX
8
2
10
1.066872
20
1.123433
70
8
0
VERTEX
8
2
10
1.06244
20
1.116977
70
8
0
VERTEX
8
2
10
1.059387
20
1.111184
70
8
0
VERTEX
8
2
10
1.057496
20
1.105991
70
8
0
VERTEX
8
2
10
1.056553
20
1.101333
70
8
0
VERTEX
8
2
10
1.056343
20
1.097143
70
8
0
VERTEX
8
2
10
1.056648
20
1.093359
70
8
0
VERTEX
8
2
10
1.057255
20
1.089913
70
8
0
VERTEX
8
2
10
1.058019
20
1.086734
70
8
0
VERTEX
8
2
10
1.059075
20
1.083714
70
8
0
VERTEX
8
2
10
1.060631
20
1.080734
70
8
0
VERTEX
8
2
10
1.062895
20
1.07768
70
8
0
VERTEX
8
2
10
1.066074
20
1.074435
70
8
0
VERTEX
8
2
10
1.070375
20
1.070881
70
8
0
VERTEX
8
2
10
1.076006
20
1.066903
70
8
0
VERTEX
8
2
10
1.083173
20
1.062384
70
8
0
SEQEND
8
2
0
ARC
8
2
62
1
10
1.217987
20
1.147421
40
0.02696198
50
151.4283
51
270.2031
0
ARC
8
2
62
7
10
1.109376
20
1.098705
40
0.02944363
50
116.4184
51
33.57915
0
ARC
8
1
62
7
10
1.11019
20
1.101019
40
0.1880175
50
305.9437
51
310.984
0
LINE
8
1
62
7
10
1.230623
20
0.9628145
11
1.233884
21
0.9589149
0
ARC
8
1
62
7
10
1.238675
20
0.9706517
40
0.01154807
50
43.88343
51
223.8834
0
POLYLINE
8
4
62
5
70
1
66
1
40
0
41
0
0
VERTEX
8
4
10
1.080115
20
0.9369344
0
VERTEX
8
4
10
1.080115
20
0.8572213
0
VERTEX
8
4
10
1.246534
20
0.8572213
0
VERTEX
8
4
10
1.246534
20
0.939279
0
SEQEND
8
4
0
LINE
8
4
62
5
10
1.246657
20
0.8545238
11
1.211612
21
0.7717604
0
POLYLINE
8
2
62
1
70
0
66
1
40
0
41
0
0
VERTEX
8
2
10
1.232162
20
1.061023
0
VERTEX
8
2
10
1.247449
20
1.062329
0
SEQEND
8
2
0
POLYLINE
8
2
62
1
70
4
75
6
66
1
40
0
41
0
0
VERTEX
8
2
10
1.164008
20
1.107343
70
16
0
VERTEX
8
2
10
1.158753
20
1.105739
70
16
0
VERTEX
8
2
10
1.155095
20
1.098705
70
16
0
VERTEX
8
2
10
1.164239
20
1.091672
70
16
0
VERTEX
8
2
10
1.182527
20
1.077605
70
16
0
VERTEX
8
2
10
1.204472
20
1.070571
70
16
0
VERTEX
8
2
10
1.224589
20
1.065882
70
16
0
VERTEX
8
2
10
1.242876
20
1.063538
70
16
0
VERTEX
8
2
10
1.164008
20
1.107343
70
8
0
VERTEX
8
2
10
1.162196
20
1.106657
70
8
0
VERTEX
8
2
10
1.160694
20
1.10582
70
8
0
VERTEX
8
2
10
1.159489
20
1.104863
70
8
0
VERTEX
8
2
10
1.158571
20
1.103815
70
8
0
VERTEX
8
2
10
1.157928
20
1.102704
70
8
0
VERTEX
8
2
10
1.157549
20
1.10156
70
8
0
VERTEX
8
2
10
1.157421
20
1.100413
70
8
0
VERTEX
8
2
10
1.157533
20
1.099291
70
8
0
VERTEX
8
2
10
1.157874
20
1.098217
70
8
0
VERTEX
8
2
10
1.158433
20
1.097176
70
8
0
VERTEX
8
2
10
1.1592
20
1.096149
70
8
0
VERTEX
8
2
10
1.160162
20
1.095115
70
8
0
VERTEX
8
2
10
1.161311
20
1.094054
70
8
0
VERTEX
8
2
10
1.162634
20
1.092945
70
8
0
VERTEX
8
2
10
1.164122
20
1.091767
70
8
0
VERTEX
8
2
10
1.165763
20
1.0905
70
8
0
VERTEX
8
2
10
1.167547
20
1.08913
70
8
0
VERTEX
8
2
10
1.169463
20
1.087679
70
8
0
VERTEX
8
2
10
1.171501
20
1.086172
70
8
0
VERTEX
8
2
10
1.173649
20
1.084638
70
8
0
VERTEX
8
2
10
1.175898
20
1.083104
70
8
0
VERTEX
8
2
10
1.178236
20
1.081598
70
8
0
VERTEX
8
2
10
1.180652
20
1.080146
70
8
0
VERTEX
8
2
10
1.183136
20
1.078777
70
8
0
VERTEX
8
2
10
1.185681
20
1.077511
70
8
0
VERTEX
8
2
10
1.188292
20
1.076341
70
8
0
VERTEX
8
2
10
1.190977
20
1.075253
70
8
0
VERTEX
8
2
10
1.193747
20
1.074235
70
8
0
VERTEX
8
2
10
1.196609
20
1.073271
70
8
0
VERTEX
8
2
10
1.199574
20
1.072348
70
8
0
VERTEX
8
2
10
1.202649
20
1.071453
70
8
0
VERTEX
8
2
10
1.205844
20
1.070571
70
8
0
VERTEX
8
2
10
1.209179
20
1.069692
70
8
0
VERTEX
8
2
10
1.212723
20
1.068813
70
8
0
VERTEX
8
2
10
1.216556
20
1.067934
70
8
0
VERTEX
8
2
10
1.22076
20
1.067055
70
8
0
VERTEX
8
2
10
1.225413
20
1.066175
70
8
0
VERTEX
8
2
10
1.230596
20
1.065296
70
8
0
VERTEX
8
2
10
1.236391
20
1.064417
70
8
0
VERTEX
8
2
10
1.242876
20
1.063538
70
8
0
SEQEND
8
2
0
POLYLINE
8
2
62
1
70
4
75
6
66
1
40
0
41
0
0
VERTEX
8
2
10
1.138409
20
1.102192
70
16
0
VERTEX
8
2
10
1.155216
20
1.091726
70
16
0
VERTEX
8
2
10
1.160312
20
1.087154
70
16
0
VERTEX
8
2
10
1.166427
20
1.078661
70
16
0
VERTEX
8
2
10
1.166936
20
1.072128
70
16
0
VERTEX
8
2
10
1.167446
20
1.068209
70
16
0
VERTEX
8
2
10
1.175599
20
1.066249
70
16
0
VERTEX
8
2
10
1.201078
20
1.064942
70
16
0
VERTEX
8
2
10
1.23369
20
1.061023
70
16
0
VERTEX
8
2
10
1.138409
20
1.102192
70
8
0
VERTEX
8
2
10
1.14407
20
1.098634
70
8
0
VERTEX
8
2
10
1.148559
20
1.095744
70
8
0
VERTEX
8
2
10
1.15204
20
1.093423
70
8
0
VERTEX
8
2
10
1.154676
20
1.091572
70
8
0
VERTEX
8
2
10
1.156631
20
1.090091
70
8
0
VERTEX
8
2
10
1.158071
20
1.088881
70
8
0
VERTEX
8
2
10
1.159158
20
1.087845
70
8
0
VERTEX
8
2
10
1.160057
20
1.086881
70
8
0
VERTEX
8
2
10
1.160904
20
1.08591
70
8
0
VERTEX
8
2
10
1.161718
20
1.084921
70
8
0
VERTEX
8
2
10
1.162493
20
1.08392
70
8
0
VERTEX
8
2
10
1.163221
20
1.082914
70
8
0
VERTEX
8
2
10
1.163892
20
1.081911
70
8
0
VERTEX
8
2
10
1.1645
20
1.080918
70
8
0
VERTEX
8
2
10
1.165036
20
1.079941
70
8
0
VERTEX
8
2
10
1.165493
20
1.078988
70
8
0
VERTEX
8
2
10
1.165865
20
1.078064
70
8
0
VERTEX
8
2
10
1.16616
20
1.077172
70
8
0
VERTEX
8
2
10
1.16639
20
1.076314
70
8
0
VERTEX
8
2
10
1.166565
20
1.07549
70
8
0
VERTEX
8
2
10
1.166696
20
1.074702
70
8
0
VERTEX
8
2
10
1.166794
20
1.07395
70
8
0
VERTEX
8
2
10
1.166871
20
1.073237
70
8
0
VERTEX
8
2
10
1.166936
20
1.072564
70
8
0
VERTEX
8
2
10
1.167002
20
1.071931
70
8
0
VERTEX
8
2
10
1.167084
20
1.071337
70
8
0
VERTEX
8
2
10
1.167195
20
1.070782
70
8
0
VERTEX
8
2
10
1.16735
20
1.070264
70
8
0
VERTEX
8
2
10
1.167566
20
1.069781
70
8
0
VERTEX
8
2
10
1.167856
20
1.069333
70
8
0
VERTEX
8
2
10
1.168236
20
1.068918
70
8
0
VERTEX
8
2
10
1.16872
20
1.068535
70
8
0
VERTEX
8
2
10
1.169328
20
1.068182
70
8
0
VERTEX
8
2
10
1.1701
20
1.067856
70
8
0
VERTEX
8
2
10
1.171078
20
1.067553
70
8
0
VERTEX
8
2
10
1.172308
20
1.06727
70
8
0
VERTEX
8
2
10
1.173832
20
1.067001
70
8
0
VERTEX
8
2
10
1.175695
20
1.066744
70
8
0
VERTEX
8
2
10
1.177939
20
1.066494
70
8
0
VERTEX
8
2
10
1.18061
20
1.066249
70
8
0
VERTEX
8
2
10
1.183772
20
1.065997
70
8
0
VERTEX
8
2
10
1.187578
20
1.065708
70
8
0
VERTEX
8
2
10
1.192202
20
1.065342
70
8
0
VERTEX
8
2
10
1.197818
20
1.064861
70
8
0
VERTEX
8
2
10
1.204601
20
1.064226
70
8
0
VERTEX
8
2
10
1.212725
20
1.063401
70
8
0
VERTEX
8
2
10
1.222363
20
1.062346
70
8
0
VERTEX
8
2
10
1.23369
20
1.061023
70
8
0
SEQEND
8
2
0
ARC
8
1
62
7
10
1.240877
20
1.023578
40
0.01154807
50
59.31163
51
239.3116
0
ARC
8
1
62
7
10
1.11019
20
1.101019
40
0.1566593
50
318.928
51
324.8314
0
POLYLINE
8
5
62
7
70
0
66
1
40
0
41
0
0
VERTEX
8
5
10
0.03346453
20
0.9844574
0
VERTEX
8
5
10
0.03655158
20
0.9819931
0
VERTEX
8
5
10
0.06566797
20
0.9857136
0
VERTEX
8
5
10
0.06019865
20
1.053002
0
VERTEX
8
5
10
0.0571023
20
1.054658
0
SEQEND
8
5
0
POLYLINE
8
5
62
7
70
1
66
1
40
0
41
0
0
VERTEX
8
5
10
0.02772938
20
1.028261
0
VERTEX
8
5
10
0.04435955
20
1.029692
0
VERTEX
8
5
10
0.04359613
20
1.054
0
VERTEX
8
5
10
0.05606423
20
1.054669
0
VERTEX
8
5
10
0.06050478
20
0.9882017
0
VERTEX
8
5
10
0.03242598
20
0.9844693
0
SEQEND
8
5
0
ARC
8
3
62
7
10
0.9826978
20
1.020342
40
0.01417357
50
358.3496
51
253.7454
0
ARC
8
1
62
7
10
0.9406353
20
1.033757
40
0.01154807
50
291.0411
51
111.0411
0
ARC
8
1
62
7
10
1.11019
20
1.101019
40
0.09421597
50
224.2536
51
234.9404
0
ARC
8
1
62
7
10
1.013894
20
1.031752
40
0.01154807
50
306.6607
51
126.6607
0
LINE
8
1
62
7
10
1.05894
20
1.028325
11
1.056181
21
1.024056
0
ARC
8
1
62
7
10
1.11019
20
1.101019
40
0.09421597
50
302.7196
51
314.2621
0
ARC
8
1
62
7
10
1.207796
20
1.03361
40
0.01154807
50
56.30315
51
236.3031
0
CIRCLE
8
4
62
5
10
1.092917
20
1.044782
40
0.02020684
0
LINE
8
4
62
5
10
1.113033
20
1.040093
11
1.120348
21
0.939279
0
LINE
8
4
62
5
10
1.0728
20
1.049471
11
1.023016
21
0.9095291
0
LINE
8
5
62
7
10
0.9521047
20
1.037251
11
0.8464617
21
0.9118804
0
LINE
8
5
62
7
10
0.9405764
20
1.071616
11
0.8386902
21
0.9922711
0
ARC
8
1
62
7
10
1.148247
20
1.021143
40
0.01154807
50
24.32418
51
204.3241
0
LINE
8
5
62
7
10
0.8203655
20
0.9592658
11
0.2601009
21
0.8411872
0
LINE
8
5
62
7
10
0.8336402
20
1.024676
11
0.2249008
21
1.025726
0
POLYLINE
8
5
62
7
70
1
66
1
40
0
41
0
0
VERTEX
8
5
10
0.06873499
20
0.8107108
0
VERTEX
8
5
10
0.08489428
20
0.8148927
0
VERTEX
8
5
10
0.09225999
20
0.7917156
0
VERTEX
8
5
10
0.1042405
20
0.7952315
0
VERTEX
8
5
10
0.08631907
20
0.8593912
0
VERTEX
8
5
10
0.05859767
20
0.8535711
0
SEQEND
8
5
0
POLYLINE
8
5
62
7
70
0
66
1
40
0
41
0
0
VERTEX
8
5
10
0.05957304
20
0.8539276
0
VERTEX
8
5
10
0.06166468
20
0.8572785
0
VERTEX
8
5
10
0.09036051
20
0.863455
0
VERTEX
8
5
10
0.1075855
20
0.7981786
0
VERTEX
8
5
10
0.1052157
20
0.795588
0
SEQEND
8
5
0
ARC
8
5
62
7
10
1.069256
20
1.086863
40
1.028951
50
195.4421
51
197.4789
0
POLYLINE
8
5
62
7
70
0
66
1
40
0
41
0
0
VERTEX
8
5
10
0.07346044
20
0.8945023
0
VERTEX
8
5
10
0.0785657
20
0.8954472
0
VERTEX
8
5
10
0.06824957
20
0.9511937
0
VERTEX
8
5
10
0.06314479
20
0.9502498
0
SEQEND
8
5
0
POLYLINE
8
5
62
7
70
1
66
1
40
0
41
0
0
VERTEX
8
5
10
0.1148485
20
0.9034568
0
VERTEX
8
5
10
0.09299003
20
0.8994305
0
VERTEX
8
5
10
0.08262549
20
0.9556962
0
VERTEX
8
5
10
0.1044844
20
0.9597231
0
SEQEND
8
5
0
POLYLINE
8
5
62
7
70
0
66
1
40
0
41
0
0
VERTEX
8
5
10
0.1162695
20
0.903982
0
VERTEX
8
5
10
0.1213749
20
0.9049226
0
VERTEX
8
5
10
0.1111041
20
0.9606782
0
VERTEX
8
5
10
0.1059993
20
0.9597381
0
SEQEND
8
5
0
POLYLINE
8
5
62
7
70
1
66
1
40
0
41
0
0
VERTEX
8
5
10
0.1148468
20
0.9034649
0
VERTEX
8
5
10
0.09298812
20
0.899439
0
VERTEX
8
5
10
0.08262406
20
0.9557048
0
VERTEX
8
5
10
0.104483
20
0.9597315
0
SEQEND
8
5
0
POLYLINE
8
5
62
7
70
0
66
1
40
0
41
0
0
VERTEX
8
5
10
0.1162675
20
0.9039904
0
VERTEX
8
5
10
0.1213728
20
0.9049307
0
VERTEX
8
5
10
0.1111032
20
0.9606868
0
VERTEX
8
5
10
0.1059979
20
0.9597467
0
SEQEND
8
5
0
ARC
8
5
62
7
10
1.406444
20
1.147327
40
1.370496
50
190.7396
51
192.1062
0
POLYLINE
8
5
62
7
70
1
66
1
40
0
41
0
0
VERTEX
8
5
10
0.07204042
20
0.8939757
0
VERTEX
8
5
10
0.0501853
20
0.8899309
0
VERTEX
8
5
10
0.03977452
20
0.9461888
0
VERTEX
8
5
10
0.06163035
20
0.9502331
0
SEQEND
8
5
0
ARC
8
5
62
7
10
2.180485
20
1.228027
40
2.148537
50
186.5561
51
187.5094
0
ARC
8
3
62
7
10
1.004279
20
0.9933549
40
0.01417357
50
174.9192
51
75.86704
0
ARC
8
3
62
7
10
1.011472
20
1.021339
40
0.01483664
50
176.632
51
257.7049
0
ARC
8
3
62
7
10
0.9753975
20
0.9924928
40
0.01483664
50
359.5903
51
80.66323
0
CIRCLE
8
3
62
7
10
1.004173
20
0.9932705
40
0.004213074
0
CIRCLE
8
3
62
7
10
0.9826978
20
1.020342
40
0.004213074
0
LINE
8
1
62
7
10
0.9520971
20
1.008715
11
0.9480478
21
1.006388
0
LINE
8
1
62
7
10
0.9447814
20
1.022979
11
0.9405743
21
1.020952
0
ARC
8
1
62
7
10
1.11019
20
1.101019
40
0.1880175
50
205.3493
51
210.2596
0
ARC
8
1
62
7
10
0.9586493
20
0.9992062
40
0.01154807
50
304.5677
51
124.5677
0
LINE
8
1
62
7
10
0.9758488
20
0.9773344
11
0.972387
21
0.9741997
0
LINE
8
1
62
7
10
0.9649688
20
0.989915
11
0.9609929
21
0.9867479
0
ARC
8
1
62
7
10
1.11019
20
1.101019
40
0.1880175
50
217.4671
51
222.5349
0
ARC
8
1
62
7
10
0.9842731
20
0.9694356
40
0.01154807
50
316.843
51
136.843
0
LINE
8
1
62
7
10
0.9924232
20
0.9617008
11
0.9892117
21
0.9577607
0
LINE
8
1
62
7
10
1.005036
20
0.9511057
11
1.002038
21
0.9470006
0
LINE
8
1
62
7
10
1.024359
20
0.9390346
11
1.022205
21
0.9348909
0
ARC
8
1
62
7
10
1.014583
20
0.945182
40
0.01154807
50
327.8379
51
147.8379
0
ARC
8
1
62
7
10
1.11019
20
1.101019
40
0.1880175
50
229.7424
51
234.9385
0
LINE
8
1
62
7
10
1.19814
20
0.9409777
11
1.200499
21
0.9364759
0
LINE
8
1
62
7
10
1.217503
20
0.9529864
11
1.220269
21
0.9492232
0
ARC
8
1
62
7
10
1.207671
20
0.9469286
40
0.01154807
50
31.63547
51
211.6354
0
ARC
8
1
62
7
10
1.11019
20
1.101019
40
0.1239443
50
221.258
51
228.2145
0
LINE
8
1
62
7
10
1.020814
20
1.022542
11
1.016956
21
1.019232
0
LINE
8
1
62
7
10
1.030894
20
1.012368
11
1.027548
21
1.008542
0
ARC
8
1
62
7
10
1.04004
20
1.005364
40
0.01154807
50
322.8117
51
142.8117
0
LINE
8
1
62
7
10
1.049385
20
0.9985772
11
1.046875
21
0.9946383
0
ARC
8
1
62
7
10
1.11019
20
1.101019
40
0.09421597
50
276.4534
51
288.1617
0
LINE
8
1
62
7
10
1.137729
20
1.016446
11
1.139497
21
1.01168
0
LINE
8
1
62
7
10
1.12038
20
1.01266
11
1.120758
21
1.007591
0
LINE
8
1
62
7
10
1.119833
20
0.9825162
11
1.120211
21
0.9774472
0
ARC
8
1
62
7
10
1.11019
20
1.101019
40
0.1239443
50
274.888
51
282.8446
0
LINE
8
1
62
7
10
1.136578
20
0.9850427
11
1.137761
21
0.9800993
0
LINE
8
1
62
7
10
1.15867
20
1.026119
11
1.160935
21
1.022035
0
LINE
8
1
62
7
10
1.19164
20
1.013576
11
1.194702
21
1.010049
0
LINE
8
1
62
7
10
1.173157
20
0.9997743
11
1.175874
21
0.9954773
0
ARC
8
1
62
7
10
1.182474
20
1.006548
40
0.01154807
50
36.27881
51
216.2788
0
ARC
8
1
62
7
10
1.11019
20
1.101019
40
0.1239443
50
293.8701
51
301.6816
0
LINE
8
1
62
7
10
1.158527
20
0.9921378
11
1.160286
21
0.9878107
0
ARC
8
1
62
7
10
1.147583
20
0.9884459
40
0.01154807
50
17.4418
51
197.4418
0
LINE
8
1
62
7
10
1.201188
20
1.024137
11
1.20485
21
1.021237
0
ARC
8
1
62
7
10
1.11019
20
1.101019
40
0.1239443
50
312.7626
51
319.8751
0
CIRCLE
8
3
62
7
10
1.036154
20
0.9695593
40
0.004213074
0
ARC
8
3
62
7
10
1.036154
20
0.9695593
40
0.01417357
50
26.63638
51
282.0321
0
ARC
8
3
62
7
10
1.033824
20
0.9981598
40
0.01483664
50
193.5793
51
274.6522
0
ARC
8
3
62
7
10
1.007958
20
0.9645678
40
0.01483664
50
3.620968
51
84.69392
0
LINE
8
4
62
5
10
1.023423
20
0.8243982
11
1.122177
21
0.8243982
0
LINE
8
4
62
5
10
1.122177
20
0.8243982
11
1.122177
21
0.8572213
0
ARC
8
1
62
7
10
1.11019
20
1.101019
40
0.1239443
50
239.2399
51
242.3523
0
ARC
8
1
62
7
10
1.11019
20
1.101019
40
0.1880175
50
242.1462
51
245.1129
0
ARC
8
1
62
7
10
1.108861
20
1.01255
40
0.01154807
50
0.2908235
51
58.28173
0
ARC
8
1
62
7
10
1.172608
20
0.9297224
40
0.01154807
50
50.8978
51
144.696
0
LINE
8
5
62
7
10
1.228718
20
0.9526361
11
1.232646
21
0.9377271
0
LINE
8
4
62
5
10
1.170496
20
0.7745346
11
1.221066
21
0.8555743
0
ARC
8
3
62
7
10
1.151543
20
0.8032581
40
0.01483664
50
274.6053
51
355.6782
0
CIRCLE
8
3
62
7
10
1.180353
20
0.7999243
40
0.004213074
0
CIRCLE
8
3
62
7
10
1.156522
20
0.7749016
40
0.004213074
0
ARC
8
3
62
7
10
1.202785
20
0.8537902
40
0.01483664
50
274.6053
51
355.6782
0
ARC
8
3
62
7
10
1.180128
20
0.8289472
40
0.01483664
50
278.6053
51
359.6783
0
ARC
8
3
62
7
10
1.156522
20
0.7749016
40
0.01417357
50
96.32291
51
274.9512
0
ARC
8
3
62
7
10
1.231496
20
0.8505484
40
0.01417357
50
155.8347
51
173.8403
0
ARC
8
3
62
7
10
1.207764
20
0.8254337
40
0.01417357
50
96.32291
51
218.7899
0
ARC
8
3
62
7
10
1.180254
20
0.8000163
40
0.01417357
50
37.28621
51
173.8403
0
POLYLINE
8
2
62
5
70
0
66
1
40
0
41
0
0
VERTEX
8
2
10
1.007433
20
0.8270697
0
VERTEX
8
2
10
1.007433
20
0.8231377
0
VERTEX
8
2
10
0.987497
20
0.8231377
0
VERTEX
8
2
10
0.987497
20
0.8565597
0
VERTEX
8
2
10
1.007433
20
0.8565597
0
VERTEX
8
2
10
1.007433
20
0.8526277
0
SEQEND
8
2
0
POLYLINE
8
2
62
5
70
0
66
1
40
0
41
0
0
VERTEX
8
2
10
1.022768
20
0.8264965
0
VERTEX
8
2
10
1.007433
20
0.8264965
0
VERTEX
8
2
10
1.007433
20
0.8540205
0
VERTEX
8
2
10
1.022768
20
0.8540205
0
SEQEND
8
2
0
LINE
8
5
62
7
10
1.023034
20
0.871416
11
1.009132
21
0.8542566
0
LINE
8
4
62
5
10
1.023423
20
0.9102267
11
1.023423
21
0.8243982
0
LINE
8
5
62
7
10
0.9647893
20
0.9897038
11
0.8357285
21
0.9625036
0
LINE
8
5
62
7
10
0.947605
20
1.02448
11
0.8493599
21
1.024649
0
LINE
8
1
62
7
10
1.208239
20
0.9854423
11
1.211187
21
0.9818197
0
LINE
8
1
62
7
10
1.224726
20
1.001168
11
1.228205
21
0.9980527
0
ARC
8
1
62
7
10
1.216345
20
0.9932224
40
0.01154807
50
43.47663
51
223.4766
0
ARC
8
1
62
7
10
1.11019
20
1.101019
40
0.1566593
50
288.6647
51
294.8242
0
LINE
8
1
62
7
10
1.136631
20
0.9520148
11
1.137358
21
0.9474014
0
LINE
8
1
62
7
10
1.158788
20
0.9573215
11
1.160231
21
0.9528788
0
ARC
8
1
62
7
10
1.14755
20
0.9546651
40
0.01154807
50
13.2982
51
193.2982
0
LINE
8
1
62
7
10
1.173957
20
0.9632863
11
1.175872
21
0.9590262
0
ARC
8
1
62
7
10
1.11019
20
1.101019
40
0.1566593
50
303.4413
51
310.2067
0
LINE
8
1
62
7
10
1.193938
20
0.9742368
11
1.196498
21
0.9703306
0
ARC
8
1
62
7
10
1.184068
20
0.9688662
40
0.01154807
50
28.89521
51
208.8952
0
ARC
8
1
62
7
10
1.11019
20
1.101019
40
0.1566593
50
273.9549
51
280.0293
0
POLYLINE
8
5
62
7
70
1
66
1
40
0
41
0
0
VERTEX
8
5
10
0.0492457
20
1.12404
0
VERTEX
8
5
10
0.02702032
20
1.123903
0
VERTEX
8
5
10
0.02737222
20
1.066692
0
VERTEX
8
5
10
0.0495976
20
1.066828
0
SEQEND
8
5
0
ARC
8
5
62
7
10
1.064674
20
1.101668
40
1.028951
50
181.9501
51
183.9869
0
POLYLINE
8
5
62
7
70
0
66
1
40
0
41
0
0
VERTEX
8
5
10
0.04959474
20
1.123526
0
VERTEX
8
5
10
0.05478678
20
1.123558
0
VERTEX
8
5
10
0.05513487
20
1.066865
0
VERTEX
8
5
10
0.04994379
20
1.066833
0
SEQEND
8
5
0
LINE
8
1
62
7
10
1.04708
20
1.109331
11
1.042579
21
1.110579
0
ARC
8
1
62
7
10
1.11019
20
1.101019
40
0.06820092
50
172.0669
51
187.7483
0
LINE
8
1
62
7
10
1.047536
20
1.093113
11
1.043031
21
1.091881
0
LINE
8
1
62
7
10
1.055242
20
1.07137
11
1.050597
21
1.069307
0
ARC
8
1
62
7
10
1.11019
20
1.101019
40
0.09421597
50
173.9052
51
184.8217
0
LINE
8
1
62
7
10
1.021748
20
1.110462
11
1.01672
21
1.111205
0
LINE
8
1
62
7
10
1.026126
20
1.071128
11
1.021629
21
1.069867
0
LINE
8
1
62
7
10
1.021545
20
1.093736
11
1.0165
21
1.093115
0
ARC
8
1
62
7
10
1.023688
20
1.082418
40
0.01154807
50
280.9844
51
100.9844
0
ARC
8
1
62
7
10
1.11019
20
1.101019
40
0.1239443
50
186.6296
51
193.5478
0
ARC
8
1
62
7
10
1.11019
20
1.101019
40
0.1239443
50
169.007
51
175.5659
0
LINE
8
1
62
7
10
0.994547
20
1.07321
11
0.9896184
21
1.071965
0
LINE
8
1
62
7
10
0.9914299
20
1.110371
11
0.9867641
21
1.11059
0
LINE
8
1
62
7
10
0.9920427
20
1.087311
11
0.9869872
21
1.086783
0
ARC
8
1
62
7
10
0.9915897
20
1.098822
40
0.01154807
50
271.9941
51
91.99402
0
LINE
8
1
62
7
10
0.9934226
20
1.123645
11
0.988444
21
1.124668
0
ARC
8
1
62
7
10
0.9280893
20
1.112311
40
0.01154807
50
267.1072
51
87.10723
0
LINE
8
1
62
7
10
0.9275447
20
1.082757
11
0.9228946
21
1.082321
0
LINE
8
1
62
7
10
0.9274546
20
1.101093
11
0.9223725
21
1.100997
0
LINE
8
1
62
7
10
0.928672
20
1.123845
11
0.9240423
21
1.124461
0
ARC
8
1
62
7
10
1.11019
20
1.101019
40
0.1880175
50
180.0757
51
185.7381
0
ARC
8
1
62
7
10
0.9295594
20
1.071386
40
0.01154807
50
280.0462
51
100.0462
0
ARC
8
3
62
7
10
0.9596556
20
1.08885
40
0.01417357
50
334.2244
51
235.1723
0
ARC
8
3
62
7
10
0.9857358
20
1.076414
40
0.01483664
50
152.3865
51
233.4595
0
ARC
8
3
62
7
10
0.9404653
20
1.06725
40
0.01483664
50
329.4282
51
50.50117
0
CIRCLE
8
3
62
7
10
0.9595231
20
1.088823
40
0.004213074
0
CIRCLE
8
3
62
7
10
0.9665114
20
1.054982
40
0.004213074
0
ARC
8
3
62
7
10
0.9665114
20
1.054982
40
0.01417357
50
156.3461
51
51.74186
0
ARC
8
3
62
7
10
0.9822513
20
1.107604
40
0.01483664
50
135.8099
51
216.8828
0
ARC
8
3
62
7
10
0.9392589
20
1.10813
40
0.01483664
50
325.7682
51
46.8411
0
ARC
8
3
62
7
10
0.9940561
20
1.046939
40
0.01483664
50
163.726
51
244.799
0
ARC
8
3
62
7
10
0.955942
20
1.02837
40
0.01483664
50
353.6843
51
74.75727
0
LINE
8
1
62
7
10
0.9365379
20
1.04422
11
0.9316789
21
1.042728
0
LINE
8
1
62
7
10
0.9314524
20
1.06031
11
0.9265209
21
1.059079
0
ARC
8
1
62
7
10
1.11019
20
1.101019
40
0.1880175
50
192.9457
51
198.1718
0
ARC
8
1
62
7
10
1.11019
20
1.101019
40
0.06820092
50
208.0193
51
224.2217
0
ARC
8
1
62
7
10
1.11019
20
1.101019
40
0.09421597
50
199.5511
51
209.6956
0
LINE
8
1
62
7
10
1.032538
20
1.057083
11
1.028639
21
1.054511
0
LINE
8
1
62
7
10
1.046619
20
1.038812
11
1.042845
21
1.035406
0
ARC
8
1
62
7
10
1.039472
20
1.047845
40
0.01154807
50
308.0909
51
128.0909
0
ARC
8
1
62
7
10
1.11019
20
1.101019
40
0.1239443
50
204.5732
51
210.1769
0
LINE
8
1
62
7
10
1.007194
20
1.041159
11
1.003232
21
1.038686
0
LINE
8
1
62
7
10
1.001911
20
1.051349
11
0.9976059
21
1.049537
0
ARC
8
1
62
7
10
0.9980847
20
1.062247
40
0.01154807
50
288.1451
51
108.145
0
ARC
8
1
62
7
10
1.11019
20
1.101019
40
0.06820092
50
283.074
51
298.4294
0
LINE
8
1
62
7
10
1.065195
20
1.057732
11
1.061813
21
1.053938
0
LINE
8
1
62
7
10
1.124664
20
1.040283
11
1.12546
21
1.035264
0
LINE
8
1
62
7
10
1.139597
20
1.045941
11
1.142327
21
1.041654
0
LINE
8
1
62
7
10
1.158035
20
1.059803
11
1.161109
21
1.056286
0
ARC
8
1
62
7
10
1.148892
20
1.052745
40
0.01154807
50
36.46278
51
216.4627
0
ARC
8
1
62
7
10
1.179626
20
1.046181
40
0.01154807
50
52.85162
51
232.8516
0
LINE
8
1
62
7
10
1.17246
20
1.037123
11
1.17594
21
1.034008
0
LINE
8
1
62
7
10
1.186541
20
1.055394
11
1.190795
21
1.052613
0
ARC
8
1
62
7
10
1.11019
20
1.101019
40
0.09421597
50
329.014
51
337.7822
0
ARC
8
1
62
7
10
1.11019
20
1.101019
40
0.06820092
50
318.7002
51
330.494
0
LINE
8
1
62
7
10
1.214143
20
1.043223
11
1.218558
21
1.040702
0
ARC
8
1
62
7
10
1.223859
20
1.067104
40
0.01154807
50
196.4334
51
252.4541
0
ARC
8
1
62
7
10
1.11019
20
1.101019
40
0.1239443
50
330.9386
51
337.8569
0
LINE
8
1
62
7
10
1.220337
20
1.056136
11
1.225065
21
1.054272
0
ARC
8
1
62
7
10
1.113195
20
1.03922
40
0.01154807
50
5.04081
51
90.25839
0
ARC
8
1
62
7
10
1.068999
20
1.022713
40
0.01154807
50
99.71722
51
151.103
0
ARC
8
1
62
7
10
1.051257
20
1.082178
40
0.01154807
50
289.9863
51
341.8189
0
ARC
8
1
62
7
10
1.051257
20
1.082178
40
0.01154807
50
59.5582
51
109.9862
0
POLYLINE
8
2
62
1
70
4
75
6
66
1
40
0
41
0
0
VERTEX
8
2
10
1.232113
20
1.120074
70
16
0
VERTEX
8
2
10
1.197157
20
1.117461
70
16
0
VERTEX
8
2
10
1.197157
20
1.117461
70
16
0
VERTEX
8
2
10
1.182148
20
1.11288
70
16
0
VERTEX
8
2
10
1.232113
20
1.120074
70
8
0
VERTEX
8
2
10
1.220546
20
1.119203
70
8
0
VERTEX
8
2
10
1.21167
20
1.118492
70
8
0
VERTEX
8
2
10
1.2049
20
1.117858
70
8
0
VERTEX
8
2
10
1.19965
20
1.117215
70
8
0
VERTEX
8
2
10
1.195336
20
1.116481
70
8
0
VERTEX
8
2
10
1.191371
20
1.115569
70
8
0
VERTEX
8
2
10
1.18717
20
1.114397
70
8
0
VERTEX
8
2
10
1.182148
20
1.11288
70
8
0
SEQEND
8
2
0
CIRCLE
8
2
62
7
10
1.109376
20
1.098705
40
0.008195792
0
CIRCLE
8
2
62
7
10
1.109376
20
1.098705
40
0.01433922
0
POLYLINE
8
2
62
1
70
4
75
6
66
1
40
0
41
0
0
VERTEX
8
2
10
1.123907
20
1.073593
70
16
0
VERTEX
8
2
10
1.125835
20
1.072916
70
16
0
VERTEX
8
2
10
1.13315
20
1.065882
70
16
0
VERTEX
8
2
10
1.13315
20
1.063538
70
16
0
VERTEX
8
2
10
1.127663
20
1.058849
70
16
0
VERTEX
8
2
10
1.114862
20
1.058849
70
16
0
VERTEX
8
2
10
1.106828
20
1.057542
70
16
0
VERTEX
8
2
10
1.108985
20
1.057811
70
16
0
VERTEX
8
2
10
1.123907
20
1.073593
70
8
0
VERTEX
8
2
10
1.124704
20
1.073214
70
8
0
VERTEX
8
2
10
1.125622
20
1.072618
70
8
0
VERTEX
8
2
10
1.126618
20
1.071855
70
8
0
VERTEX
8
2
10
1.127651
20
1.070973
70
8
0
VERTEX
8
2
10
1.12868
20
1.070023
70
8
0
VERTEX
8
2
10
1.129662
20
1.069052
70
8
0
VERTEX
8
2
10
1.130556
20
1.068112
70
8
0
VERTEX
8
2
10
1.131321
20
1.06725
70
8
0
VERTEX
8
2
10
1.131923
20
1.066505
70
8
0
VERTEX
8
2
10
1.132364
20
1.065867
70
8
0
VERTEX
8
2
10
1.132655
20
1.065316
70
8
0
VERTEX
8
2
10
1.132807
20
1.064832
70
8
0
VERTEX
8
2
10
1.13283
20
1.064394
70
8
0
VERTEX
8
2
10
1.132735
20
1.06398
70
8
0
VERTEX
8
2
10
1.132534
20
1.063572
70
8
0
VERTEX
8
2
10
1.132235
20
1.063147
70
8
0
VERTEX
8
2
10
1.131849
20
1.062691
70
8
0
VERTEX
8
2
10
1.131373
20
1.062213
70
8
0
VERTEX
8
2
10
1.130805
20
1.061725
70
8
0
VERTEX
8
2
10
1.13014
20
1.061242
70
8
0
VERTEX
8
2
10
1.129375
20
1.060777
70
8
0
VERTEX
8
2
10
1.128506
20
1.060345
70
8
0
VERTEX
8
2
10
1.127531
20
1.059958
70
8
0
VERTEX
8
2
10
1.126444
20
1.05963
70
8
0
VERTEX
8
2
10
1.125247
20
1.059372
70
8
0
VERTEX
8
2
10
1.123951
20
1.059173
70
8
0
VERTEX
8
2
10
1.122572
20
1.059022
70
8
0
VERTEX
8
2
10
1.121126
20
1.058906
70
8
0
VERTEX
8
2
10
1.119629
20
1.05881
70
8
0
VERTEX
8
2
10
1.118096
20
1.058723
70
8
0
VERTEX
8
2
10
1.116543
20
1.058631
70
8
0
VERTEX
8
2
10
1.114987
20
1.058522
70
8
0
VERTEX
8
2
10
1.113451
20
1.058387
70
8
0
VERTEX
8
2
10
1.111998
20
1.058235
70
8
0
VERTEX
8
2
10
1.110699
20
1.058083
70
8
0
VERTEX
8
2
10
1.109624
20
1.057943
70
8
0
VERTEX
8
2
10
1.108844
20
1.057832
70
8
0
VERTEX
8
2
10
1.10843
20
1.057763
70
8
0
VERTEX
8
2
10
1.108454
20
1.057751
70
8
0
VERTEX
8
2
10
1.108985
20
1.057811
70
8
0
SEQEND
8
2
0
ARC
8
1
62
7
10
1.074271
20
1.05064
40
0.01154807
50
52.91181
51
142.2548
0
LINE
8
1
62
7
10
1.246998
20
0.9786569
11
1.250499
21
0.9755665
0
LINE
8
1
62
7
10
1.234983
20
1.013647
11
1.238791
21
1.010943
0
LINE
8
1
62
7
10
1.246669
20
1.033205
11
1.250855
21
1.031133
0
ARC
8
1
62
7
10
1.256125
20
1.059684
40
0.01154807
50
173.256
51
254.851
0
ARC
8
1
62
7
10
1.242193
20
1.175398
40
0.01154807
50
119.5752
51
299.5752
0
ARC
8
1
62
7
10
1.11019
20
1.101019
40
0.1566593
50
33.58399
51
40.29034
0
LINE
8
5
62
7
10
1.083475
20
1.27339
11
0.6545666
21
1.862978
0
LINE
8
5
62
7
10
0.9590684
20
1.181291
11
0.2262455
21
1.183589
0
LINE
8
5
62
7
10
0.9294492
20
1.142649
11
0.3652328
21
1.585996
0
LINE
8
5
62
7
10
0.9483219
20
1.175111
11
0.4841254
21
1.731454
0
LINE
8
5
62
7
10
0.9795724
20
1.212014
11
0.2587388
21
1.367215
0
POLYLINE
8
5
62
7
70
0
66
1
40
0
41
0
0
VERTEX
8
5
10
0.1961995
20
1.543265
0
VERTEX
8
5
10
0.2008082
20
1.540876
0
VERTEX
8
5
10
0.2269071
20
1.591205
0
VERTEX
8
5
10
0.2222994
20
1.593594
0
SEQEND
8
5
0
POLYLINE
8
5
62
7
70
0
66
1
40
0
41
0
0
VERTEX
8
5
10
0.1961962
20
1.543258
0
VERTEX
8
5
10
0.2008048
20
1.540868
0
VERTEX
8
5
10
0.2269033
20
1.591197
0
VERTEX
8
5
10
0.2222952
20
1.593587
0
SEQEND
8
5
0
POLYLINE
8
5
62
7
70
0
66
1
40
0
41
0
0
VERTEX
8
5
10
0.1565758
20
1.562037
0
VERTEX
8
5
10
0.1611861
20
1.559651
0
VERTEX
8
5
10
0.187244
20
1.610001
0
VERTEX
8
5
10
0.1826335
20
1.612388
0
SEQEND
8
5
0
POLYLINE
8
5
62
7
70
1
66
1
40
0
41
0
0
VERTEX
8
5
10
0.1947516
20
1.543715
0
VERTEX
8
5
10
0.1750208
20
1.553946
0
VERTEX
8
5
10
0.2013579
20
1.604736
0
VERTEX
8
5
10
0.2210897
20
1.594505
0
SEQEND
8
5
0
POLYLINE
8
5
62
7
70
1
66
1
40
0
41
0
0
VERTEX
8
5
10
0.1947554
20
1.543722
0
VERTEX
8
5
10
0.1750244
20
1.553954
0
VERTEX
8
5
10
0.2013627
20
1.604744
0
VERTEX
8
5
10
0.221094
20
1.594512
0
SEQEND
8
5
0
POLYLINE
8
5
62
7
70
1
66
1
40
0
41
0
0
VERTEX
8
5
10
0.1551307
20
1.562492
0
VERTEX
8
5
10
0.1353916
20
1.572708
0
VERTEX
8
5
10
0.1630899
20
1.62352
0
VERTEX
8
5
10
0.1814273
20
1.613304
0
SEQEND
8
5
0
ARC
8
5
62
7
10
1.494124
20
0.9938897
40
1.468371
50
156.9236
51
158.2439
0
POLYLINE
8
5
62
7
70
0
66
1
40
0
41
0
0
VERTEX
8
5
10
0.1216849
20
1.53825
0
VERTEX
8
5
10
0.1253649
20
1.539686
0
VERTEX
8
5
10
0.1520606
20
1.527482
0
VERTEX
8
5
10
0.1268428
20
1.464857
0
VERTEX
8
5
10
0.1233946
20
1.464197
0
SEQEND
8
5
0
POLYLINE
8
5
62
7
70
1
66
1
40
0
41
0
0
VERTEX
8
5
10
0.1031922
20
1.49813
0
VERTEX
8
5
10
0.118646
20
1.491821
0
VERTEX
8
5
10
0.1106938
20
1.468839
0
VERTEX
8
5
10
0.1224001
20
1.464495
0
VERTEX
8
5
10
0.1463913
20
1.52664
0
VERTEX
8
5
10
0.1206905
20
1.538548
0
SEQEND
8
5
0
ARC
8
5
62
7
10
1.070316
20
1.121335
40
1.028951
50
168.5825
51
169.96
0
ARC
8
5
62
7
10
1.070316
20
1.121335
40
1.028951
50
163.9607
51
165.9974
0
ARC
8
5
62
7
10
1.070316
20
1.121335
40
1.028951
50
158.7044
51
160.7238
0
POLYLINE
8
5
62
7
70
0
66
1
40
0
41
0
0
VERTEX
8
5
10
0.1059586
20
1.237776
0
VERTEX
8
5
10
0.111092
20
1.237004
0
VERTEX
8
5
10
0.1195232
20
1.293068
0
VERTEX
8
5
10
0.1143905
20
1.29384
0
SEQEND
8
5
0
POLYLINE
8
5
62
7
70
1
66
1
40
0
41
0
0
VERTEX
8
5
10
0.1044441
20
1.237742
0
VERTEX
8
5
10
0.08246504
20
1.241048
0
VERTEX
8
5
10
0.09097372
20
1.297624
0
VERTEX
8
5
10
0.1129533
20
1.294319
0
SEQEND
8
5
0
POLYLINE
8
5
62
7
70
0
66
1
40
0
41
0
0
VERTEX
8
5
10
0.1059576
20
1.237768
0
VERTEX
8
5
10
0.1110917
20
1.236996
0
VERTEX
8
5
10
0.1195224
20
1.293059
0
VERTEX
8
5
10
0.1143888
20
1.293832
0
SEQEND
8
5
0
POLYLINE
8
5
62
7
70
1
66
1
40
0
41
0
0
VERTEX
8
5
10
0.1044427
20
1.237733
0
VERTEX
8
5
10
0.08246408
20
1.241039
0
VERTEX
8
5
10
0.09097157
20
1.297616
0
VERTEX
8
5
10
0.1129511
20
1.29431
0
SEQEND
8
5
0
POLYLINE
8
5
62
7
70
0
66
1
40
0
41
0
0
VERTEX
8
5
10
0.06239377
20
1.242734
0
VERTEX
8
5
10
0.06752835
20
1.241966
0
VERTEX
8
5
10
0.07591353
20
1.298036
0
VERTEX
8
5
10
0.07077943
20
1.298804
0
SEQEND
8
5
0
POLYLINE
8
5
62
7
70
0
66
1
40
0
41
0
0
VERTEX
8
5
10
0.166076
20
1.473276
0
VERTEX
8
5
10
0.1690353
20
1.472335
0
VERTEX
8
5
10
0.1323382
20
1.356912
0
VERTEX
8
5
10
0.127899
20
1.358323
0
SEQEND
8
5
0
POLYLINE
8
5
62
7
70
1
66
1
40
0
41
0
0
VERTEX
8
5
10
0.1453594
20
1.479862
0
VERTEX
8
5
10
0.1086627
20
1.364439
0
VERTEX
8
5
10
0.127899
20
1.358323
0
VERTEX
8
5
10
0.1645962
20
1.473746
0
SEQEND
8
5
0
POLYLINE
8
5
62
7
70
0
66
1
40
0
41
0
0
VERTEX
8
5
10
0.05509959
20
1.328831
0
VERTEX
8
5
10
0.05727444
20
1.325534
0
VERTEX
8
5
10
0.08611666
20
1.32008
0
VERTEX
8
5
10
0.1016961
20
1.385768
0
VERTEX
8
5
10
0.09926234
20
1.388299
0
SEQEND
8
5
0
POLYLINE
8
5
62
7
70
1
66
1
40
0
41
0
0
VERTEX
8
5
10
0.06317316
20
1.372264
0
VERTEX
8
5
10
0.07943259
20
1.36849
0
VERTEX
8
5
10
0.08621369
20
1.391844
0
VERTEX
8
5
10
0.09827839
20
1.38863
0
VERTEX
8
5
10
0.08197437
20
1.324041
0
VERTEX
8
5
10
0.0541154
20
1.329163
0
SEQEND
8
5
0
POLYLINE
8
5
62
7
70
0
66
1
40
0
41
0
0
VERTEX
8
5
10
0.1120161
20
1.456455
0
VERTEX
8
5
10
0.1169633
20
1.454882
0
VERTEX
8
5
10
0.09978567
20
1.400853
0
VERTEX
8
5
10
0.09483825
20
1.402426
0
SEQEND
8
5
0
POLYLINE
8
5
62
7
70
1
66
1
40
0
41
0
0
VERTEX
8
5
10
0.1106719
20
1.457154
0
VERTEX
8
5
10
0.08949052
20
1.463889
0
VERTEX
8
5
10
0.07215582
20
1.409365
0
VERTEX
8
5
10
0.09333716
20
1.402631
0
SEQEND
8
5
0
POLYLINE
8
5
62
7
70
1
66
1
40
0
41
0
0
VERTEX
8
5
10
0.06087933
20
1.242698
0
VERTEX
8
5
10
0.03889738
20
1.245985
0
VERTEX
8
5
10
0.04735933
20
1.302569
0
VERTEX
8
5
10
0.06934176
20
1.299281
0
SEQEND
8
5
0
POLYLINE
8
5
62
7
70
1
66
1
40
0
41
0
0
VERTEX
8
5
10
0.03066359
20
1.160438
0
VERTEX
8
5
10
0.04731045
20
1.159211
0
VERTEX
8
5
10
0.04684482
20
1.134896
0
VERTEX
8
5
10
0.05932031
20
1.13438
0
VERTEX
8
5
10
0.06294571
20
1.200896
0
VERTEX
8
5
10
0.03482376
20
1.204285
0
SEQEND
8
5
0
POLYLINE
8
5
62
7
70
0
66
1
40
0
41
0
0
VERTEX
8
5
10
0.03586135
20
1.204308
0
VERTEX
8
5
10
0.03891788
20
1.206811
0
VERTEX
8
5
10
0.06807838
20
1.203448
0
VERTEX
8
5
10
0.06343423
20
1.136096
0
VERTEX
8
5
10
0.06035839
20
1.134404
0
SEQEND
8
5
0
ARC
8
5
62
7
10
1.845725
20
1.021162
40
1.81064
50
172.985
51
174.1739
0
POLYLINE
8
5
62
7
70
0
66
1
40
0
41
0
0
VERTEX
8
5
10
0.3334139
20
1.752089
0
VERTEX
8
5
10
0.3359109
20
1.750242
0
VERTEX
8
5
10
0.2638775
20
1.652875
0
VERTEX
8
5
10
0.2601321
20
1.655645
0
SEQEND
8
5
0
POLYLINE
8
5
62
7
70
1
66
1
40
0
41
0
0
VERTEX
8
5
10
0.3159385
20
1.765018
0
VERTEX
8
5
10
0.2439051
20
1.66765
0
VERTEX
8
5
10
0.2601321
20
1.655645
0
VERTEX
8
5
10
0.3321655
20
1.753013
0
SEQEND
8
5
0
ARC
8
5
62
7
10
1.075371
20
1.126778
40
1.028951
50
145.1035
51
147.1403
0
POLYLINE
8
5
62
7
70
1
66
1
40
0
41
0
0
VERTEX
8
5
10
0.2033862
20
1.689758
0
VERTEX
8
5
10
0.2175535
20
1.680931
0
VERTEX
8
5
10
0.2315184
20
1.700841
0
VERTEX
8
5
10
0.2418974
20
1.693899
0
VERTEX
8
5
10
0.2055925
20
1.638046
0
VERTEX
8
5
10
0.1808842
20
1.651897
0
SEQEND
8
5
0
POLYLINE
8
5
62
7
70
0
66
1
40
0
41
0
0
VERTEX
8
5
10
0.1817082
20
1.651265
0
VERTEX
8
5
10
0.1827005
20
1.647442
0
VERTEX
8
5
10
0.2082318
20
1.632959
0
VERTEX
8
5
10
0.2442067
20
1.690086
0
VERTEX
8
5
10
0.2427214
20
1.693267
0
SEQEND
8
5
0
ARC
8
5
62
7
10
1.573288
20
0.8539163
40
1.596598
50
150.2771
51
151.3829
0
ARC
8
5
62
7
10
1.075371
20
1.126778
40
1.028951
50
139.8472
51
141.8666
0
POLYLINE
8
5
62
7
70
0
66
1
40
0
41
0
0
VERTEX
8
5
10
0.3124061
20
1.827923
0
VERTEX
8
5
10
0.3163527
20
1.828093
0
VERTEX
8
5
10
0.3376709
20
1.807915
0
VERTEX
8
5
10
0.2935658
20
1.756803
0
VERTEX
8
5
10
0.2900892
20
1.757292
0
SEQEND
8
5
0
POLYLINE
8
5
62
7
70
1
66
1
40
0
41
0
0
VERTEX
8
5
10
0.2819389
20
1.795934
0
VERTEX
8
5
10
0.294524
20
1.784969
0
VERTEX
8
5
10
0.2795704
20
1.76579
0
VERTEX
8
5
10
0.2892442
20
1.757896
0
VERTEX
8
5
10
0.3320335
20
1.808951
0
VERTEX
8
5
10
0.3115612
20
1.828527
0
SEQEND
8
5
0
POLYLINE
8
5
62
7
70
0
66
1
40
0
41
0
0
VERTEX
8
5
10
0.2768191
20
1.753643
0
VERTEX
8
5
10
0.2809926
20
1.750556
0
VERTEX
8
5
10
0.247274
20
1.704979
0
VERTEX
8
5
10
0.2431005
20
1.708066
0
SEQEND
8
5
0
ARC
8
5
62
7
10
1.08491
20
1.136188
40
1.028951
50
136.4592
51
138.0364
0
ARC
8
5
62
7
10
1.08491
20
1.136188
40
1.028951
50
131.9281
51
133.3056
0
POLYLINE
8
5
62
7
70
0
66
1
40
0
41
0
0
VERTEX
8
5
10
0.3807676
20
1.805312
0
VERTEX
8
5
10
0.384425
20
1.801628
0
VERTEX
8
5
10
0.4246581
20
1.841572
0
VERTEX
8
5
10
0.4210008
20
1.845255
0
SEQEND
8
5
0
POLYLINE
8
5
62
7
70
1
66
1
40
0
41
0
0
VERTEX
8
5
10
0.3795317
20
1.806189
0
VERTEX
8
5
10
0.3638719
20
1.821962
0
VERTEX
8
5
10
0.4044741
20
1.862271
0
VERTEX
8
5
10
0.4201339
20
1.846497
0
SEQEND
8
5
0
POLYLINE
8
5
62
7
70
0
66
1
40
0
41
0
0
VERTEX
8
5
10
0.3807617
20
1.805306
0
VERTEX
8
5
10
0.3844188
20
1.801622
0
VERTEX
8
5
10
0.4246519
20
1.841566
0
VERTEX
8
5
10
0.4209948
20
1.84525
0
SEQEND
8
5
0
POLYLINE
8
5
62
7
70
1
66
1
40
0
41
0
0
VERTEX
8
5
10
0.3795257
20
1.806183
0
VERTEX
8
5
10
0.3638666
20
1.821956
0
VERTEX
8
5
10
0.4044672
20
1.862265
0
VERTEX
8
5
10
0.420127
20
1.846492
0
SEQEND
8
5
0
POLYLINE
8
5
62
7
70
0
66
1
40
0
41
0
0
VERTEX
8
5
10
0.3487769
20
1.835297
0
VERTEX
8
5
10
0.3524376
20
1.831616
0
VERTEX
8
5
10
0.392638
20
1.871592
0
VERTEX
8
5
10
0.3889773
20
1.875273
0
SEQEND
8
5
0
POLYLINE
8
5
62
7
70
1
66
1
40
0
41
0
0
VERTEX
8
5
10
0.3475409
20
1.836172
0
VERTEX
8
5
10
0.3318682
20
1.851932
0
VERTEX
8
5
10
0.3724361
20
1.892275
0
VERTEX
8
5
10
0.3881088
20
1.876515
0
SEQEND
8
5
0
POLYLINE
8
5
62
7
70
0
66
1
40
0
41
0
0
VERTEX
8
5
10
0.3943236
20
1.908723
0
VERTEX
8
5
10
0.3941005
20
1.904779
0
VERTEX
8
5
10
0.4139832
20
1.883186
0
VERTEX
8
5
10
0.4656971
20
1.926584
0
VERTEX
8
5
10
0.4652551
20
1.930067
0
SEQEND
8
5
0
POLYLINE
8
5
62
7
70
1
66
1
40
0
41
0
0
VERTEX
8
5
10
0.2757731
20
1.75474
0
VERTEX
8
5
10
0.2579053
20
1.767959
0
VERTEX
8
5
10
0.2238782
20
1.721964
0
VERTEX
8
5
10
0.2417465
20
1.708745
0
SEQEND
8
5
0
ARC
8
3
62
7
10
1.162075
20
1.276313
40
0.01483664
50
228.602
51
309.6749
0
ARC
8
3
62
7
10
1.162573
20
1.230127
40
0.01483664
50
51.56025
51
132.6332
0
CIRCLE
8
3
62
7
10
1.179685
20
1.253543
40
0.004213074
0
CIRCLE
8
3
62
7
10
1.110579
20
1.252795
40
0.004213074
0
ARC
8
3
62
7
10
1.127693
20
1.275942
40
0.01483664
50
231.5636
51
312.6365
0
ARC
8
3
62
7
10
1.128193
20
1.229756
40
0.01483664
50
48.60532
51
129.6782
0
ARC
8
3
62
7
10
1.179687
20
1.253408
40
0.01417357
50
50.89926
51
308.5312
0
ARC
8
3
62
7
10
1.145133
20
1.253035
40
0.01417357
50
230.3229
51
125.7187
0
ARC
8
3
62
7
10
1.110581
20
1.25266
40
0.01417357
50
46.89249
51
307.8403
0
CIRCLE
8
3
62
7
10
1.145133
20
1.253035
40
0.004213074
0
LINE
8
1
62
7
10
1.177471
20
1.271554
11
1.179248
21
1.276317
0
ARC
8
1
62
7
10
1.187671
20
1.266843
40
0.01154807
50
155.5539
51
181.4458
0
LINE
8
1
62
7
10
1.161385
20
1.276281
11
1.1629
21
1.281133
0
ARC
8
1
62
7
10
1.150437
20
1.27881
40
0.01154807
50
166.6434
51
346.6434
0
ARC
8
1
62
7
10
1.11019
20
1.101019
40
0.1880175
50
68.4533
51
73.67494
0
LINE
8
1
62
7
10
1.139202
20
1.281478
11
1.139906
21
1.286095
0
LINE
8
1
62
7
10
1.043625
20
1.271287
11
1.041957
21
1.275649
0
ARC
8
1
62
7
10
1.033211
20
1.266296
40
0.01154807
50
205.6067
51
25.60665
0
LINE
8
1
62
7
10
1.083608
20
1.282411
11
1.082972
21
1.287454
0
LINE
8
1
62
7
10
1.061268
20
1.277933
11
1.059993
21
1.282426
0
ARC
8
1
62
7
10
1.072598
20
1.280169
40
0.01154807
50
191.165
51
11.16497
0
LINE
8
1
62
7
10
1.100533
20
1.28367
11
1.100165
21
1.288739
0
LINE
8
1
62
7
10
1.123317
20
1.28367
11
1.123685
21
1.288325
0
ARC
8
1
62
7
10
1.111769
20
1.283635
40
0.01154807
50
180.1701
51
0.1700665
0
ARC
8
1
62
7
10
1.11019
20
1.101019
40
0.1880175
50
93.06953
51
98.26554
0
ARC
8
1
62
7
10
1.11019
20
1.101019
40
0.1880175
50
80.94197
51
85.8619
0
ARC
8
1
62
7
10
1.11019
20
1.101019
40
0.1880175
50
105.4731
51
111.2984
0
LINE
8
1
62
7
10
1.023049
20
1.261501
11
1.02054
21
1.265921
0
ARC
8
1
62
7
10
1.11019
20
1.101019
40
0.1880175
50
118.476
51
123.633
0
ARC
8
1
62
7
10
0.9994642
20
1.246119
40
0.01154807
50
216.6016
51
36.60156
0
LINE
8
1
62
7
10
1.008444
20
1.252873
11
1.005704
21
1.257154
0
LINE
8
1
62
7
10
0.9790965
20
1.228074
11
0.9757687
21
1.23135
0
LINE
8
1
62
7
10
0.990193
20
1.239234
11
0.9871117
21
1.242743
0
ARC
8
1
62
7
10
1.11019
20
1.101019
40
0.1880175
50
130.9097
51
135.8296
0
LINE
8
1
62
7
10
0.9547678
20
1.196869
11
0.9508115
21
1.199351
0
LINE
8
1
62
7
10
0.9644386
20
1.210631
11
0.9603206
21
1.213611
0
ARC
8
1
62
7
10
0.9716936
20
1.219211
40
0.01154807
50
230.1282
51
50.12819
0
ARC
8
1
62
7
10
1.11019
20
1.101019
40
0.1880175
50
143.0275
51
148.2775
0
ARC
8
3
62
7
10
1.043709
20
1.235217
40
0.01417357
50
62.6412
51
324.1595
0
ARC
8
3
62
7
10
1.077145
20
1.243938
40
0.01417357
50
244.8758
51
142.7165
0
ARC
8
3
62
7
10
1.099776
20
1.225974
40
0.01483664
50
62.60532
51
143.6782
0
ARC
8
3
62
7
10
1.088117
20
1.270667
40
0.01483664
50
245.5636
51
326.6365
0
CIRCLE
8
3
62
7
10
1.077111
20
1.244069
40
0.004213074
0
CIRCLE
8
3
62
7
10
1.043709
20
1.235217
40
0.004213074
0
ARC
8
3
62
7
10
1.066172
20
1.217209
40
0.01483664
50
65.56025
51
146.6332
0
ARC
8
3
62
7
10
1.054515
20
1.261902
40
0.01483664
50
242.602
51
323.6749
0
ARC
8
3
62
7
10
0.9904646
20
1.193076
40
0.01417357
50
84.8925
51
345.8403
0
ARC
8
3
62
7
10
1.018445
20
1.18587
40
0.01483664
50
86.60532
51
167.6782
0
ARC
8
3
62
7
10
0.9896156
20
1.221957
40
0.01483664
50
269.5636
51
350.6365
0
CIRCLE
8
3
62
7
10
0.9903799
20
1.193181
40
0.004213074
0
CIRCLE
8
3
62
7
10
1.017461
20
1.214643
40
0.004213074
0
ARC
8
3
62
7
10
1.044692
20
1.206444
40
0.01483664
50
86.60532
51
167.6782
0
ARC
8
3
62
7
10
1.015862
20
1.24253
40
0.01483664
50
269.5636
51
350.6365
0
ARC
8
3
62
7
10
1.017461
20
1.214643
40
0.01417357
50
268.3229
51
163.7187
0
LINE
8
1
62
7
10
1.080923
20
1.157556
11
1.078217
21
1.161364
0
LINE
8
1
62
7
10
1.122277
20
1.163413
11
1.122515
21
1.168078
0
LINE
8
1
62
7
10
1.099216
20
1.162895
11
1.098708
21
1.167953
0
ARC
8
1
62
7
10
1.11019
20
1.101019
40
0.06820092
50
99.79288
51
117.8391
0
LINE
8
1
62
7
10
1.141553
20
1.184891
11
1.143478
21
1.189146
0
ARC
8
1
62
7
10
1.11019
20
1.101019
40
0.09421597
50
69.53992
51
81.36398
0
ARC
8
1
62
7
10
1.11019
20
1.101019
40
0.09421597
50
96.06212
51
108.0093
0
LINE
8
1
62
7
10
1.123886
20
1.18918
11
1.124287
21
1.193834
0
LINE
8
1
62
7
10
1.10082
20
1.189468
11
1.10049
21
1.19454
0
ARC
8
1
62
7
10
1.112339
20
1.189471
40
0.01154807
50
179.7596
51
359.7596
0
LINE
8
1
62
7
10
1.082691
20
1.185606
11
1.080926
21
1.190372
0
ARC
8
1
62
7
10
1.11019
20
1.101019
40
0.1239443
50
94.80559
51
102.8925
0
ARC
8
1
62
7
10
1.11019
20
1.101019
40
0.1239443
50
76.65383
51
83.74177
0
LINE
8
1
62
7
10
1.083748
20
1.217175
11
1.082568
21
1.221694
0
LINE
8
1
62
7
10
1.13755
20
1.216962
11
1.138766
21
1.221471
0
LINE
8
1
62
7
10
1.159321
20
1.209336
11
1.161368
21
1.213989
0
ARC
8
1
62
7
10
1.148499
20
1.213283
40
0.01154807
50
160.2257
51
340.2256
0
LINE
8
1
62
7
10
1.123317
20
1.219421
11
1.123685
21
1.224077
0
LINE
8
1
62
7
10
1.10025
20
1.219542
11
1.099883
21
1.224612
0
ARC
8
1
62
7
10
1.111769
20
1.219628
40
0.01154807
50
180.1701
51
0.1700665
0
ARC
8
1
62
7
10
1.11019
20
1.101019
40
0.1239443
50
64.15606
51
65.59005
0
ARC
8
1
62
7
10
1.11019
20
1.101019
40
0.06820092
50
76.16795
51
79.52245
0
ARC
8
1
62
7
10
1.110727
20
1.163301
40
0.01154807
50
181.7596
51
297.0894
0
ARC
8
1
62
7
10
1.110727
20
1.163301
40
0.01154807
50
352.8486
51
1.759587
0
ARC
8
1
62
7
10
1.11019
20
1.101019
40
0.09421597
50
122.8636
51
133.7089
0
LINE
8
1
62
7
10
1.04887
20
1.165447
11
1.04522
21
1.168984
0
LINE
8
1
62
7
10
1.061746
20
1.175941
11
1.059483
21
1.180027
0
ARC
8
1
62
7
10
1.072171
20
1.180913
40
0.01154807
50
204.297
51
24.29698
0
LINE
8
1
62
7
10
1.048575
20
1.202754
11
1.045892
21
1.207072
0
ARC
8
1
62
7
10
1.11019
20
1.101019
40
0.1239443
50
113.9565
51
121.2274
0
LINE
8
1
62
7
10
1.061918
20
1.209722
11
1.059908
21
1.214391
0
ARC
8
1
62
7
10
1.072771
20
1.213582
40
0.01154807
50
199.3208
51
19.32079
0
ARC
8
1
62
7
10
1.039204
20
1.196055
40
0.01154807
50
215.8245
51
35.82448
0
ARC
8
1
62
7
10
1.11019
20
1.101019
40
0.1239443
50
132.2526
51
139.8298
0
LINE
8
1
62
7
10
1.019289
20
1.177723
11
1.015367
21
1.180957
0
LINE
8
1
62
7
10
1.029983
20
1.1891
11
1.02695
21
1.192651
0
LINE
8
1
62
7
10
1.02688
20
1.132951
11
1.022415
21
1.134322
0
ARC
8
1
62
7
10
1.012551
20
1.168379
40
0.01154807
50
234.4653
51
54.46531
0
LINE
8
1
62
7
10
1.054855
20
1.131049
11
1.050216
21
1.133128
0
LINE
8
1
62
7
10
1.006037
20
1.158842
11
1.002027
21
1.161237
0
ARC
8
3
62
7
10
0.9628636
20
1.187984
40
0.01483664
50
280.2237
51
1.296607
0
ARC
8
1
62
7
10
0.9494506
20
1.186618
40
0.01154807
50
242.5857
51
62.58569
0
LINE
8
1
62
7
10
0.9442173
20
1.176675
11
0.9395539
21
1.178697
0
ARC
8
1
62
7
10
1.11019
20
1.101019
40
0.1880175
50
155.5543
51
160.6811
0
LINE
8
1
62
7
10
0.9373733
20
1.160789
11
0.9326087
21
1.162561
0
CIRCLE
8
3
62
7
10
0.9704653
20
1.16029
40
0.004213074
0
ARC
8
3
62
7
10
0.9992324
20
1.165051
40
0.01483664
50
110.182
51
191.2549
0
ARC
8
1
62
7
10
0.9342624
20
1.149992
40
0.01154807
50
352.9217
51
73.5806
0
ARC
8
3
62
7
10
0.9434739
20
1.150285
40
0.01483664
50
0.8984364
51
22.29661
0
ARC
8
3
62
7
10
0.9877003
20
1.136965
40
0.01483664
50
170.3445
51
205.2549
0
ARC
8
3
62
7
10
0.970594
20
1.160251
40
0.01417357
50
332.4449
51
206.9677
0
ARC
8
1
62
7
10
1.11019
20
1.101019
40
0.09421597
50
156.2881
51
159.2225
0
ARC
8
1
62
7
10
1.041407
20
1.156673
40
0.01154807
50
311.7334
51
49.87141
0
ARC
8
1
62
7
10
1.11019
20
1.101019
40
0.06820092
50
149.4512
51
151.7969
0
ARC
8
1
62
7
10
1.071931
20
1.150307
40
0.01154807
50
309.4861
51
40.07591
0
POLYLINE
8
2
62
1
70
0
66
1
40
0
41
0
0
VERTEX
8
2
10
1.111204
20
1.14794
0
VERTEX
8
2
10
1.086223
20
1.141534
0
SEQEND
8
2
0
ARC
8
1
62
7
10
1.11019
20
1.101019
40
0.1239443
50
150.8937
51
154.7571
0
POLYLINE
8
2
62
1
70
4
75
6
66
1
40
0
41
0
0
VERTEX
8
2
10
1.167896
20
1.215931
70
16
0
VERTEX
8
2
10
1.155095
20
1.19483
70
16
0
VERTEX
8
2
10
1.145951
20
1.169041
70
16
0
VERTEX
8
2
10
1.142294
20
1.145595
70
16
0
VERTEX
8
2
10
1.175212
20
1.157318
70
16
0
VERTEX
8
2
10
1.198986
20
1.176074
70
16
0
VERTEX
8
2
10
1.22225
20
1.194445
70
16
0
VERTEX
8
2
10
1.167896
20
1.215931
70
8
0
VERTEX
8
2
10
1.163469
20
1.208391
70
8
0
VERTEX
8
2
10
1.159736
20
1.201555
70
8
0
VERTEX
8
2
10
1.156621
20
1.195356
70
8
0
VERTEX
8
2
10
1.154047
20
1.189726
70
8
0
VERTEX
8
2
10
1.151938
20
1.1846
70
8
0
VERTEX
8
2
10
1.150216
20
1.179911
70
8
0
VERTEX
8
2
10
1.148805
20
1.175594
70
8
0
VERTEX
8
2
10
1.147628
20
1.17158
70
8
0
VERTEX
8
2
10
1.146629
20
1.167823
70
8
0
VERTEX
8
2
10
1.145839
20
1.164342
70
8
0
VERTEX
8
2
10
1.14531
20
1.161178
70
8
0
VERTEX
8
2
10
1.145094
20
1.158368
70
8
0
VERTEX
8
2
10
1.145242
20
1.155952
70
8
0
VERTEX
8
2
10
1.145806
20
1.153969
70
8
0
VERTEX
8
2
10
1.146838
20
1.152458
70
8
0
VERTEX
8
2
10
1.148389
20
1.151457
70
8
0
VERTEX
8
2
10
1.150493
20
1.150993
70
8
0
VERTEX
8
2
10
1.153102
20
1.151042
70
8
0
VERTEX
8
2
10
1.15615
20
1.151567
70
8
0
VERTEX
8
2
10
1.159572
20
1.152531
70
8
0
VERTEX
8
2
10
1.1633
20
1.153899
70
8
0
VERTEX
8
2
10
1.16727
20
1.155633
70
8
0
VERTEX
8
2
10
1.171415
20
1.157697
70
8
0
VERTEX
8
2
10
1.175669
20
1.160053
70
8
0
VERTEX
8
2
10
1.179998
20
1.162685
70
8
0
VERTEX
8
2
10
1.184498
20
1.165646
70
8
0
VERTEX
8
2
10
1.189296
20
1.16901
70
8
0
VERTEX
8
2
10
1.194522
20
1.172851
70
8
0
VERTEX
8
2
10
1.200302
20
1.177242
70
8
0
VERTEX
8
2
10
1.206765
20
1.182255
70
8
0
VERTEX
8
2
10
1.214038
20
1.187965
70
8
0
VERTEX
8
2
10
1.22225
20
1.194445
70
8
0
SEQEND
8
2
0
ARC
8
1
62
7
10
1.11019
20
1.101019
40
0.1239443
50
23.79112
51
30.10047
0
LINE
8
1
62
7
10
1.226405
20
1.127203
11
1.230926
21
1.128373
0
LINE
8
1
62
7
10
1.219
20
1.149049
11
1.223673
21
1.151049
0
ARC
8
1
62
7
10
1.222837
20
1.138188
40
0.01154807
50
109.1939
51
289.1939
0
LINE
8
1
62
7
10
1.213118
20
1.160621
11
1.217488
21
1.163218
0
ARC
8
1
62
7
10
1.206604
20
1.170122
40
0.01154807
50
218.6582
51
304.6976
0
LINE
8
1
62
7
10
1.22506
20
1.198453
11
1.229616
21
1.202271
0
LINE
8
1
62
7
10
1.193434
20
1.262191
11
1.215554
21
1.278793
0
ARC
8
1
62
7
10
1.187427
20
1.231392
40
0.01154807
50
149.7536
51
195.9771
0
LINE
8
1
62
7
10
1.177754
20
1.23711
11
1.179277
21
1.240246
0
LINE
8
1
62
7
10
1.198184
20
1.262064
11
1.200458
21
1.266144
0
ARC
8
1
62
7
10
1.11019
20
1.101019
40
0.1880175
50
59.4941
51
61.24581
0
ARC
8
1
62
7
10
1.196799
20
1.276688
40
0.01483664
50
231.5636
51
312.6365
0
ARC
8
3
62
7
10
1.196799
20
1.276688
40
0.01483664
50
231.5636
51
312.6365
0
ARC
8
1
62
7
10
1.187671
20
1.266843
40
0.01154807
50
328.7091
51
335.5539
0
LINE
8
1
62
7
10
1.247893
20
1.165354
11
1.25213
21
1.16732
0
LINE
8
1
62
7
10
1.236707
20
1.185203
11
1.240583
21
1.187809
0
LINE
8
5
62
7
10
1.257717
20
0.9837631
11
1.40163
21
0.6983485
0
LINE
8
5
62
7
10
1.283392
20
0.8676388
11
1.499895
21
0.7031066
0
POLYLINE
8
5
62
7
70
0
66
1
40
0
41
0
0
VERTEX
8
5
10
2.096542
20
0.8678169
0
VERTEX
8
5
10
2.093568
20
0.8687133
0
VERTEX
8
5
10
2.05861
20
0.7527518
0
VERTEX
8
5
10
2.06307
20
0.7514073
0
SEQEND
8
5
0
POLYLINE
8
5
62
7
70
1
66
1
40
0
41
0
0
VERTEX
8
5
10
2.117355
20
0.8615422
0
VERTEX
8
5
10
2.082395
20
0.7455806
0
VERTEX
8
5
10
2.06307
20
0.7514073
0
VERTEX
8
5
10
2.098028
20
0.8673689
0
SEQEND
8
5
0
ARC
8
5
62
7
10
1.151659
20
1.088517
40
1.028951
50
339.5889
51
341.6257
0
POLYLINE
8
5
62
7
70
0
66
1
40
0
41
0
0
VERTEX
8
5
10
2.081554
20
0.7108523
0
VERTEX
8
5
10
2.100197
20
0.7592401
0
VERTEX
8
5
10
2.103635
20
0.759952
0
SEQEND
8
5
0
POLYLINE
8
5
62
7
70
0
66
1
40
0
41
0
0
VERTEX
8
5
10
2.11766
20
0.7102231
0
VERTEX
8
5
10
2.124346
20
0.7263271
0
VERTEX
8
5
10
2.108799
20
0.7324025
0
VERTEX
8
5
10
2.116404
20
0.7555022
0
VERTEX
8
5
10
2.104634
20
0.7596692
0
VERTEX
8
5
10
2.085754
20
0.7084824
0
SEQEND
8
5
0
ARC
8
5
62
7
10
1.11019
20
1.101019
40
0.9363798
50
334.8962
51
353.5759
0
ARC
8
5
62
7
10
1.11019
20
1.101019
40
0.8914266
50
333.8147
51
353.6835
0
ARC
8
1
62
7
10
2.596502
20
0.9850539
40
0.2353632
50
285.9454
51
296.603
0
ARC
8
1
62
7
10
2.658473
20
0.7681541
40
0.009784705
50
182.9088
51
298.664
0
ARC
8
1
62
7
10
2.596502
20
0.9850539
40
0.2353632
50
206.0524
51
253.559
0
ARC
8
1
62
7
10
2.532657
20
0.7686982
40
0.009784705
50
240.8404
51
356.5955
0
ARC
8
1
62
7
10
2.430519
20
0.759772
40
0.01154807
50
323.8568
51
143.8567
0
LINE
8
5
62
7
10
1.41113
20
0.6795074
11
1.579306
21
0.3459732
0
POLYLINE
8
5
62
7
70
0
66
1
40
0
41
0
0
VERTEX
8
5
10
1.510111
20
0.1697095
0
VERTEX
8
5
10
1.509061
20
0.172632
0
VERTEX
8
5
10
1.395079
20
0.1316744
0
VERTEX
8
5
10
1.396655
20
0.1272902
0
SEQEND
8
5
0
POLYLINE
8
5
62
7
70
1
66
1
40
0
41
0
0
VERTEX
8
5
10
1.517462
20
0.1492517
0
VERTEX
8
5
10
1.403481
20
0.1082942
0
VERTEX
8
5
10
1.396655
20
0.1272902
0
VERTEX
8
5
10
1.510636
20
0.1682477
0
SEQEND
8
5
0
POLYLINE
8
5
62
7
70
1
66
1
40
0
41
0
0
VERTEX
8
5
10
1.496058
20
0.1137449
0
VERTEX
8
5
10
1.503574
20
0.0928283
0
VERTEX
8
5
10
1.449731
20
0.07348076
0
VERTEX
8
5
10
1.442215
20
0.09439734
0
SEQEND
8
5
0
ARC
8
3
62
7
10
1.507524
20
0.7152619
40
0.01483664
50
231.5636
51
312.6365
0
ARC
8
3
62
7
10
1.508025
20
0.6690757
40
0.01483664
50
48.60532
51
129.6782
0
ARC
8
3
62
7
10
1.491615
20
0.6923022
40
0.01417357
50
230.3229
51
125.7187
0
LINE
8
5
62
7
10
1.300362
20
0.6806766
11
1.409962
21
0.2646324
0
POLYLINE
8
5
62
7
70
0
66
1
40
0
41
0
0
VERTEX
8
5
10
1.369886
20
0.0534462
0
VERTEX
8
5
10
1.366511
20
0.05549708
0
VERTEX
8
5
10
1.35999
20
0.08411697
0
VERTEX
8
5
10
1.425054
20
0.1021251
0
VERTEX
8
5
10
1.427673
20
0.09978667
0
SEQEND
8
5
0
POLYLINE
8
5
62
7
70
1
66
1
40
0
41
0
0
VERTEX
8
5
10
1.412989
20
0.06312659
0
VERTEX
8
5
10
1.408614
20
0.07923487
0
VERTEX
8
5
10
1.431701
20
0.08687809
0
VERTEX
8
5
10
1.428041
20
0.09881583
0
VERTEX
8
5
10
1.364102
20
0.08012453
0
VERTEX
8
5
10
1.370254
20
0.05247501
0
SEQEND
8
5
0
POLYLINE
8
5
62
7
70
0
66
1
40
0
41
0
0
VERTEX
8
5
10
1.277006
20
0.1008886
0
VERTEX
8
5
10
1.276044
20
0.1059901
0
VERTEX
8
5
10
1.331756
20
0.1164979
0
VERTEX
8
5
10
1.332718
20
0.1113969
0
SEQEND
8
5
0
POLYLINE
8
5
62
7
70
1
66
1
40
0
41
0
0
VERTEX
8
5
10
1.277028
20
0.0993742
0
VERTEX
8
5
10
1.281147
20
0.07753292
0
VERTEX
8
5
10
1.337368
20
0.08813682
0
VERTEX
8
5
10
1.33325
20
0.1099781
0
SEQEND
8
5
0
POLYLINE
8
5
62
7
70
0
66
1
40
0
41
0
0
VERTEX
8
5
10
1.276998
20
0.1008878
0
VERTEX
8
5
10
1.276035
20
0.1059891
0
VERTEX
8
5
10
1.331747
20
0.1164958
0
VERTEX
8
5
10
1.332709
20
0.1113948
0
SEQEND
8
5
0
POLYLINE
8
5
62
7
70
1
66
1
40
0
41
0
0
VERTEX
8
5
10
1.277019
20
0.09937289
0
VERTEX
8
5
10
1.281139
20
0.07753161
0
VERTEX
8
5
10
1.33736
20
0.08813468
0
VERTEX
8
5
10
1.333241
20
0.109976
0
SEQEND
8
5
0
POLYLINE
8
5
62
7
70
0
66
1
40
0
41
0
0
VERTEX
8
5
10
1.283577
20
0.05753818
0
VERTEX
8
5
10
1.28262
20
0.06264082
0
VERTEX
8
5
10
1.338339
20
0.07310191
0
VERTEX
8
5
10
1.339298
20
0.06800011
0
SEQEND
8
5
0
ARC
8
5
62
7
10
1.124837
20
1.060258
40
1.028951
50
282.168
51
283.5454
0
POLYLINE
8
5
62
7
70
1
66
1
40
0
41
0
0
VERTEX
8
5
10
1.283598
20
0.05602375
0
VERTEX
8
5
10
1.287699
20
0.03417888
0
VERTEX
8
5
10
1.343929
20
0.04473606
0
VERTEX
8
5
10
1.339828
20
0.06658092
0
SEQEND
8
5
0
POLYLINE
8
5
62
7
70
0
66
1
40
0
41
0
0
VERTEX
8
5
10
1.495308
20
0.1150619
0
VERTEX
8
5
10
1.493553
20
0.1199478
0
VERTEX
8
5
10
1.440199
20
0.1007754
0
VERTEX
8
5
10
1.441955
20
0.09588996
0
SEQEND
8
5
0
ARC
8
5
62
7
10
1.124837
20
1.060258
40
1.028951
50
286.1305
51
288.1673
0
CIRCLE
8
3
62
7
10
1.491615
20
0.6923022
40
0.004213074
0
CIRCLE
8
3
62
7
10
1.457061
20
0.6920623
40
0.004213074
0
ARC
8
3
62
7
10
1.474175
20
0.7152085
40
0.01483664
50
231.5636
51
312.6365
0
ARC
8
3
62
7
10
1.474675
20
0.6690225
40
0.01483664
50
48.60532
51
129.6782
0
ARC
8
3
62
7
10
1.457063
20
0.6919274
40
0.01417357
50
46.89249
51
307.8403
0
ARC
8
3
62
7
10
1.43795
20
0.713931
40
0.01483664
50
228.602
51
309.6749
0
CIRCLE
8
3
62
7
10
1.421008
20
0.6906528
40
0.004213074
0
CIRCLE
8
3
62
7
10
1.386454
20
0.6904129
40
0.004213074
0
ARC
8
3
62
7
10
1.403568
20
0.7135591
40
0.01483664
50
231.5636
51
312.6365
0
ARC
8
3
62
7
10
1.404068
20
0.6673731
40
0.01483664
50
48.60532
51
129.6782
0
ARC
8
3
62
7
10
1.334291
20
0.7128093
40
0.01483664
50
228.602
51
309.6749
0
ARC
8
3
62
7
10
1.334789
20
0.6666233
40
0.01483664
50
51.56025
51
132.6332
0
CIRCLE
8
3
62
7
10
1.31735
20
0.689531
40
0.004213074
0
CIRCLE
8
3
62
7
10
1.351901
20
0.6900384
40
0.004213074
0
ARC
8
3
62
7
10
1.369016
20
0.7131843
40
0.01483664
50
231.5636
51
312.6365
0
ARC
8
3
62
7
10
1.369516
20
0.6669986
40
0.01483664
50
48.60532
51
129.6782
0
ARC
8
3
62
7
10
1.299909
20
0.7124376
40
0.01483664
50
231.5636
51
312.6365
0
ARC
8
3
62
7
10
1.421008
20
0.6906528
40
0.01417357
50
230.3229
51
125.7187
0
ARC
8
3
62
7
10
1.386456
20
0.690278
40
0.01417357
50
46.89249
51
307.8403
0
ARC
8
3
62
7
10
1.351904
20
0.6899034
40
0.01417357
50
230.8758
51
128.7165
0
ARC
8
3
62
7
10
1.31735
20
0.689531
40
0.01417357
50
48.6412
51
310.1595
0
CIRCLE
8
3
62
7
10
1.282708
20
0.6897935
40
0.004213074
0
ARC
8
3
62
7
10
1.265526
20
0.712815
40
0.01483664
50
231.5636
51
312.6365
0
ARC
8
3
62
7
10
1.266027
20
0.6666293
40
0.01483664
50
48.60532
51
129.6782
0
ARC
8
3
62
7
10
1.28271
20
0.6896581
40
0.01417357
50
237.5346
51
132.7203
0
ARC
8
3
62
7
10
1.30041
20
0.6673393
40
0.01483664
50
48.60532
51
129.6782
0
ARC
8
3
62
7
10
1.440144
20
0.6688327
40
0.01483664
50
51.56025
51
132.6332
0
CIRCLE
8
3
62
7
10
2.729827
20
0.7381637
40
0.004213074
0
ARC
8
3
62
7
10
2.729768
20
0.7382848
40
0.01417357
50
256.0745
51
326.2129
0
ARC
8
5
62
7
10
1.145779
20
1.076333
40
1.028951
50
321.6193
51
323.6561
0
POLYLINE
8
5
62
7
70
0
66
1
40
0
41
0
0
VERTEX
8
5
10
1.929803
20
0.3988191
0
VERTEX
8
5
10
1.925863
20
0.3985294
0
VERTEX
8
5
10
1.903939
20
0.4180464
0
VERTEX
8
5
10
1.946462
20
0.4704821
0
VERTEX
8
5
10
1.949952
20
0.4700989
0
SEQEND
8
5
0
POLYLINE
8
5
62
7
70
1
66
1
40
0
41
0
0
VERTEX
8
5
10
1.959279
20
0.431725
0
VERTEX
8
5
10
1.946365
20
0.4423
0
VERTEX
8
5
10
1.960725
20
0.4619266
0
VERTEX
8
5
10
1.950815
20
0.4695217
0
VERTEX
8
5
10
1.909604
20
0.4171831
0
VERTEX
8
5
10
1.930667
20
0.3982424
0
SEQEND
8
5
0
ARC
8
5
62
7
10
1.145779
20
1.076333
40
1.028951
50
312.9259
51
314.5031
0
POLYLINE
8
5
62
7
70
0
66
1
40
0
41
0
0
VERTEX
8
5
10
1.826635
20
0.383527
0
VERTEX
8
5
10
1.82289
20
0.3871225
0
VERTEX
8
5
10
1.862151
20
0.4280209
0
VERTEX
8
5
10
1.865896
20
0.4244263
0
SEQEND
8
5
0
POLYLINE
8
5
62
7
70
1
66
1
40
0
41
0
0
VERTEX
8
5
10
1.827531
20
0.3823065
0
VERTEX
8
5
10
1.843566
20
0.3669144
0
VERTEX
8
5
10
1.883186
20
0.4081871
0
VERTEX
8
5
10
1.867152
20
0.4235799
0
SEQEND
8
5
0
POLYLINE
8
5
62
7
70
0
66
1
40
0
41
0
0
VERTEX
8
5
10
1.826628
20
0.3835215
0
VERTEX
8
5
10
1.822883
20
0.3871168
0
VERTEX
8
5
10
1.862146
20
0.4280145
0
VERTEX
8
5
10
1.865891
20
0.4244198
0
SEQEND
8
5
0
POLYLINE
8
5
62
7
70
1
66
1
40
0
41
0
0
VERTEX
8
5
10
1.827526
20
0.3823005
0
VERTEX
8
5
10
1.843559
20
0.3669085
0
VERTEX
8
5
10
1.883181
20
0.4081807
0
VERTEX
8
5
10
1.867148
20
0.4235734
0
SEQEND
8
5
0
POLYLINE
8
5
62
7
70
0
66
1
40
0
41
0
0
VERTEX
8
5
10
1.857153
20
0.3520452
0
VERTEX
8
5
10
1.85341
20
0.3556437
0
VERTEX
8
5
10
1.892705
20
0.3965088
0
VERTEX
8
5
10
1.896447
20
0.3929113
0
SEQEND
8
5
0
ARC
8
5
62
7
10
1.145779
20
1.076333
40
1.028951
50
317.6567
51
319.0342
0
POLYLINE
8
5
62
7
70
1
66
1
40
0
41
0
0
VERTEX
8
5
10
1.858048
20
0.3508238
0
VERTEX
8
5
10
1.874069
20
0.3354177
0
VERTEX
8
5
10
1.913724
20
0.3766581
0
VERTEX
8
5
10
1.897703
20
0.3920638
0
SEQEND
8
5
0
ARC
8
5
62
7
10
1.124837
20
1.060258
40
1.028951
50
291.4042
51
293.4236
0
POLYLINE
8
5
62
7
70
0
66
1
40
0
41
0
0
VERTEX
8
5
10
1.576688
20
0.1277614
0
VERTEX
8
5
10
1.577987
20
0.131492
0
VERTEX
8
5
10
1.564799
20
0.1577168
0
VERTEX
8
5
10
1.503155
20
0.1301909
0
VERTEX
8
5
10
1.502623
20
0.1267203
0
SEQEND
8
5
0
POLYLINE
8
5
62
7
70
1
66
1
40
0
41
0
0
VERTEX
8
5
10
1.537283
20
0.107792
0
VERTEX
8
5
10
1.530404
20
0.1230008
0
VERTEX
8
5
10
1.507733
20
0.1142006
0
VERTEX
8
5
10
1.502957
20
0.1257376
0
VERTEX
8
5
10
1.564169
20
0.1520193
0
VERTEX
8
5
10
1.577023
20
0.1267786
0
SEQEND
8
5
0
ARC
8
5
62
7
10
1.136564
20
1.066662
40
1.028951
50
295.1845
51
296.7617
0
POLYLINE
8
5
62
7
70
0
66
1
40
0
41
0
0
VERTEX
8
5
10
1.573926
20
0.1993333
0
VERTEX
8
5
10
1.571455
20
0.2038991
0
VERTEX
8
5
10
1.621312
20
0.2308885
0
VERTEX
8
5
10
1.623784
20
0.2263238
0
SEQEND
8
5
0
POLYLINE
8
5
62
7
70
1
66
1
40
0
41
0
0
VERTEX
8
5
10
1.574409
20
0.1978978
0
VERTEX
8
5
10
1.58499
20
0.1783517
0
VERTEX
8
5
10
1.635303
20
0.205588
0
VERTEX
8
5
10
1.624723
20
0.2251345
0
SEQEND
8
5
0
POLYLINE
8
5
62
7
70
0
66
1
40
0
41
0
0
VERTEX
8
5
10
1.573919
20
0.1993299
0
VERTEX
8
5
10
1.571447
20
0.2038952
0
VERTEX
8
5
10
1.621305
20
0.2308837
0
VERTEX
8
5
10
1.623777
20
0.2263195
0
SEQEND
8
5
0
POLYLINE
8
5
62
7
70
1
66
1
40
0
41
0
0
VERTEX
8
5
10
1.574401
20
0.197894
0
VERTEX
8
5
10
1.584982
20
0.1783477
0
VERTEX
8
5
10
1.635296
20
0.2055837
0
VERTEX
8
5
10
1.624715
20
0.2251302
0
SEQEND
8
5
0
POLYLINE
8
5
62
7
70
0
66
1
40
0
41
0
0
VERTEX
8
5
10
1.593399
20
0.1600491
0
VERTEX
8
5
10
1.590932
20
0.164617
0
VERTEX
8
5
10
1.640811
20
0.1915648
0
VERTEX
8
5
10
1.643279
20
0.1869978
0
SEQEND
8
5
0
POLYLINE
8
5
62
7
70
0
66
1
40
0
41
0
0
VERTEX
8
5
10
1.77496
20
0.3359341
0
VERTEX
8
5
10
1.773069
20
0.3383974
0
VERTEX
8
5
10
1.676997
20
0.2646452
0
VERTEX
8
5
10
1.679834
20
0.2609502
0
SEQEND
8
5
0
POLYLINE
8
5
62
7
70
1
66
1
40
0
41
0
0
VERTEX
8
5
10
1.788197
20
0.3186904
0
VERTEX
8
5
10
1.692125
20
0.2449385
0
VERTEX
8
5
10
1.679834
20
0.2609502
0
VERTEX
8
5
10
1.775906
20
0.3347019
0
SEQEND
8
5
0
POLYLINE
8
5
62
7
70
0
66
1
40
0
41
0
0
VERTEX
8
5
10
1.77752
20
0.2793752
0
VERTEX
8
5
10
1.774358
20
0.2834932
0
VERTEX
8
5
10
1.729388
20
0.2489707
0
VERTEX
8
5
10
1.732549
20
0.2448522
0
SEQEND
8
5
0
ARC
8
5
62
7
10
1.136564
20
1.066662
40
1.028951
50
299.9153
51
301.2927
0
ARC
8
5
62
7
10
1.136564
20
1.066662
40
1.028951
50
303.8778
51
305.9146
0
ARC
8
5
62
7
10
1.136564
20
1.066662
40
1.028951
50
309.1515
51
311.1709
0
POLYLINE
8
5
62
7
70
1
66
1
40
0
41
0
0
VERTEX
8
5
10
1.778635
20
0.2783491
0
VERTEX
8
5
10
1.792169
20
0.260719
0
VERTEX
8
5
10
1.746786
20
0.2258803
0
VERTEX
8
5
10
1.733252
20
0.2435104
0
SEQEND
8
5
0
POLYLINE
8
5
62
7
70
1
66
1
40
0
41
0
0
VERTEX
8
5
10
1.59388
20
0.1586131
0
VERTEX
8
5
10
1.604445
20
0.1390579
0
VERTEX
8
5
10
1.654781
20
0.1662529
0
VERTEX
8
5
10
1.644216
20
0.1858077
0
SEQEND
8
5
0
POLYLINE
8
5
62
7
70
0
66
1
40
0
41
0
0
VERTEX
8
5
10
1.851155
20
0.3162762
0
VERTEX
8
5
10
1.851255
20
0.3202254
0
VERTEX
8
5
10
1.830701
20
0.3411821
0
VERTEX
8
5
10
1.780381
20
0.2961756
0
VERTEX
8
5
10
1.780932
20
0.2927081
0
SEQEND
8
5
0
POLYLINE
8
5
62
7
70
1
66
1
40
0
41
0
0
VERTEX
8
5
10
1.819712
20
0.2852456
0
VERTEX
8
5
10
1.808526
20
0.2976343
0
VERTEX
8
5
10
1.789616
20
0.2823421
0
VERTEX
8
5
10
1.78155
20
0.2918738
0
VERTEX
8
5
10
1.831837
20
0.3355638
0
VERTEX
8
5
10
1.851773
20
0.3154427
0
SEQEND
8
5
0
POLYLINE
8
5
62
7
70
0
66
1
40
0
41
0
0
VERTEX
8
5
10
1.676848
20
0.1824603
0
VERTEX
8
5
10
1.673008
20
0.1833852
0
VERTEX
8
5
10
1.658073
20
0.208655
0
VERTEX
8
5
10
1.714553
20
0.245639
0
VERTEX
8
5
10
1.717759
20
0.2442104
0
SEQEND
8
5
0
POLYLINE
8
5
62
7
70
1
66
1
40
0
41
0
0
VERTEX
8
5
10
1.714949
20
0.2048194
0
VERTEX
8
5
10
1.705872
20
0.2188269
0
VERTEX
8
5
10
1.72553
20
0.233144
0
VERTEX
8
5
10
1.718406
20
0.2433979
0
VERTEX
8
5
10
1.663206
20
0.2061059
0
VERTEX
8
5
10
1.677495
20
0.1816479
0
SEQEND
8
5
0
ARC
8
3
62
7
10
2.216112
20
0.6994533
40
0.01417357
50
50.89926
51
308.5312
0
POLYLINE
8
5
62
7
70
1
66
1
40
0
41
0
0
VERTEX
8
5
10
1.994344
20
0.5625007
0
VERTEX
8
5
10
1.925315
20
0.4629809
0
VERTEX
8
5
10
1.908729
20
0.4744858
0
VERTEX
8
5
10
1.977758
20
0.5740055
0
SEQEND
8
5
0
POLYLINE
8
5
62
7
70
1
66
1
40
0
41
0
0
VERTEX
8
5
10
1.997529
20
0.5211644
0
VERTEX
8
5
10
2.015793
20
0.5084965
0
VERTEX
8
5
10
1.983184
20
0.4614858
0
VERTEX
8
5
10
1.964922
20
0.4741532
0
SEQEND
8
5
0
POLYLINE
8
5
62
7
70
0
66
1
40
0
41
0
0
VERTEX
8
5
10
1.976482
20
0.5748903
0
VERTEX
8
5
10
1.97393
20
0.5766603
0
VERTEX
8
5
10
1.904901
20
0.4771404
0
VERTEX
8
5
10
1.908729
20
0.4744858
0
SEQEND
8
5
0
POLYLINE
8
5
62
7
70
0
66
1
40
0
41
0
0
VERTEX
8
5
10
2.055044
20
0.5793862
0
VERTEX
8
5
10
2.053936
20
0.5831777
0
VERTEX
8
5
10
2.027973
20
0.5968747
0
VERTEX
8
5
10
1.993761
20
0.5386745
0
VERTEX
8
5
10
1.995342
20
0.5355405
0
SEQEND
8
5
0
POLYLINE
8
5
62
7
70
1
66
1
40
0
41
0
0
VERTEX
8
5
10
2.034552
20
0.54025
0
VERTEX
8
5
10
2.020122
20
0.5486404
0
VERTEX
8
5
10
2.006772
20
0.5283131
0
VERTEX
8
5
10
1.996185
20
0.534934
0
VERTEX
8
5
10
2.030767
20
0.5918698
0
VERTEX
8
5
10
2.055887
20
0.5787804
0
SEQEND
8
5
0
ARC
8
5
62
7
10
1.145779
20
1.076333
40
1.028951
50
326.8929
51
328.9123
0
POLYLINE
8
5
62
7
70
0
66
1
40
0
41
0
0
VERTEX
8
5
10
1.996155
20
0.5218012
0
VERTEX
8
5
10
1.991889
20
0.5247607
0
VERTEX
8
5
10
1.959577
20
0.4781761
0
VERTEX
8
5
10
1.963843
20
0.4752175
0
SEQEND
8
5
0
ARC
8
5
62
7
10
1.151659
20
1.088517
40
1.028951
50
330.8956
51
332.4727
0
POLYLINE
8
5
62
7
70
0
66
1
40
0
41
0
0
VERTEX
8
5
10
2.051783
20
0.6190271
0
VERTEX
8
5
10
2.047113
20
0.6212956
0
VERTEX
8
5
10
2.071884
20
0.6722907
0
VERTEX
8
5
10
2.076554
20
0.6700229
0
SEQEND
8
5
0
ARC
8
5
62
7
10
1.151659
20
1.088517
40
1.028951
50
335.6263
51
337.0038
0
POLYLINE
8
5
62
7
70
1
66
1
40
0
41
0
0
VERTEX
8
5
10
2.053012
20
0.6181418
0
VERTEX
8
5
10
2.073004
20
0.6084301
0
VERTEX
8
5
10
2.098003
20
0.6598925
0
VERTEX
8
5
10
2.078009
20
0.6696042
0
SEQEND
8
5
0
ARC
8
3
62
7
10
2.1985
20
0.7223591
40
0.01483664
50
228.602
51
309.6749
0
ARC
8
3
62
7
10
2.198998
20
0.6761732
40
0.01483664
50
51.56025
51
132.6332
0
CIRCLE
8
3
62
7
10
2.181558
20
0.6990809
40
0.004213074
0
CIRCLE
8
3
62
7
10
2.147004
20
0.698841
40
0.004213074
0
ARC
8
3
62
7
10
2.164118
20
0.7219874
40
0.01483664
50
231.5636
51
312.6365
0
ARC
8
3
62
7
10
2.164618
20
0.6758012
40
0.01483664
50
48.60532
51
129.6782
0
ARC
8
3
62
7
10
2.094842
20
0.7212371
40
0.01483664
50
228.602
51
309.6749
0
ARC
8
3
62
7
10
2.09534
20
0.6750514
40
0.01483664
50
51.56025
51
132.6332
0
CIRCLE
8
3
62
7
10
2.0779
20
0.6979589
40
0.004213074
0
CIRCLE
8
3
62
7
10
2.112451
20
0.6984665
40
0.004213074
0
ARC
8
3
62
7
10
2.129565
20
0.7216126
40
0.01483664
50
231.5636
51
312.6365
0
ARC
8
3
62
7
10
2.130066
20
0.6754267
40
0.01483664
50
48.60532
51
129.6782
0
ARC
8
3
62
7
10
2.060961
20
0.6746795
40
0.01483664
50
48.60532
51
129.6782
0
ARC
8
3
62
7
10
2.181558
20
0.6990809
40
0.01417357
50
230.3229
51
125.7187
0
ARC
8
3
62
7
10
2.147006
20
0.6987061
40
0.01417357
50
46.89249
51
307.8403
0
ARC
8
3
62
7
10
2.112453
20
0.6983315
40
0.01417357
50
230.8758
51
128.7165
0
ARC
8
3
62
7
10
2.0779
20
0.6979589
40
0.01417357
50
48.6412
51
310.1595
0
CIRCLE
8
3
62
7
10
2.008275
20
0.6967215
40
0.004213074
0
ARC
8
3
62
7
10
2.025389
20
0.7198676
40
0.01483664
50
231.5636
51
312.6365
0
ARC
8
3
62
7
10
2.02589
20
0.6736817
40
0.01483664
50
48.60532
51
129.6782
0
ARC
8
3
62
7
10
1.956113
20
0.7191176
40
0.01483664
50
228.602
51
309.6749
0
ARC
8
3
62
7
10
1.95661
20
0.6729316
40
0.01483664
50
51.56025
51
132.6332
0
CIRCLE
8
3
62
7
10
1.939171
20
0.6958393
40
0.004213074
0
CIRCLE
8
3
62
7
10
1.973723
20
0.6963467
40
0.004213074
0
ARC
8
3
62
7
10
1.990837
20
0.7194931
40
0.01483664
50
231.5636
51
312.6365
0
ARC
8
3
62
7
10
1.991337
20
0.6733069
40
0.01483664
50
48.60532
51
129.6782
0
CIRCLE
8
3
62
7
10
1.904617
20
0.6955997
40
0.004213074
0
ARC
8
3
62
7
10
1.921732
20
0.7187459
40
0.01483664
50
231.5636
51
312.6365
0
ARC
8
3
62
7
10
1.922231
20
0.6725599
40
0.01483664
50
48.60532
51
129.6782
0
ARC
8
3
62
7
10
1.852712
20
0.7182464
40
0.01483664
50
228.602
51
309.6749
0
ARC
8
3
62
7
10
1.853209
20
0.6720602
40
0.01483664
50
51.56025
51
132.6332
0
CIRCLE
8
3
62
7
10
1.83577
20
0.6949682
40
0.004213074
0
CIRCLE
8
3
62
7
10
1.870322
20
0.6954755
40
0.004213074
0
ARC
8
3
62
7
10
1.887436
20
0.7186217
40
0.01483664
50
231.5636
51
312.6365
0
ARC
8
3
62
7
10
1.887936
20
0.6724357
40
0.01483664
50
48.60532
51
129.6782
0
CIRCLE
8
3
62
7
10
1.801216
20
0.6947283
40
0.004213074
0
ARC
8
3
62
7
10
1.81833
20
0.7178745
40
0.01483664
50
231.5636
51
312.6365
0
ARC
8
3
62
7
10
1.81883
20
0.6716885
40
0.01483664
50
48.60532
51
129.6782
0
ARC
8
3
62
7
10
1.749054
20
0.7171246
40
0.01483664
50
228.602
51
309.6749
0
ARC
8
3
62
7
10
1.749551
20
0.6709387
40
0.01483664
50
51.56025
51
132.6332
0
CIRCLE
8
3
62
7
10
1.732113
20
0.6938464
40
0.004213074
0
CIRCLE
8
3
62
7
10
1.766663
20
0.6943538
40
0.004213074
0
ARC
8
3
62
7
10
1.783778
20
0.7174997
40
0.01483664
50
231.5636
51
312.6365
0
ARC
8
3
62
7
10
1.784279
20
0.6713139
40
0.01483664
50
48.60532
51
129.6782
0
ARC
8
3
62
7
10
1.714672
20
0.7167529
40
0.01483664
50
231.5636
51
312.6365
0
ARC
8
3
62
7
10
1.715172
20
0.6705667
40
0.01483664
50
48.60532
51
129.6782
0
ARC
8
3
62
7
10
2.04283
20
0.6969611
40
0.01417357
50
226.0037
51
129.8206
0
ARC
8
3
62
7
10
2.008278
20
0.6965865
40
0.01417357
50
49.58665
51
311.6842
0
ARC
8
3
62
7
10
1.973725
20
0.6962118
40
0.01417357
50
230.491
51
130.553
0
ARC
8
3
62
7
10
1.939171
20
0.6958393
40
0.01417357
50
47.30077
51
313.5754
0
ARC
8
3
62
7
10
1.904619
20
0.6954646
40
0.01417357
50
237.5346
51
132.7203
0
ARC
8
3
62
7
10
1.870324
20
0.6953403
40
0.01417357
50
50.89926
51
308.5312
0
ARC
8
3
62
7
10
1.83577
20
0.6949682
40
0.01417357
50
230.3229
51
125.7187
0
ARC
8
3
62
7
10
1.801219
20
0.6945934
40
0.01417357
50
46.89249
51
307.8403
0
ARC
8
3
62
7
10
1.766666
20
0.6942188
40
0.01417357
50
230.8758
51
128.7165
0
ARC
8
3
62
7
10
1.732113
20
0.6938464
40
0.01417357
50
48.6412
51
310.1595
0
CIRCLE
8
3
62
7
10
1.69747
20
0.6941089
40
0.004213074
0
ARC
8
3
62
7
10
1.645564
20
0.7167553
40
0.01483664
50
228.602
51
309.6749
0
ARC
8
3
62
7
10
1.646062
20
0.6705694
40
0.01483664
50
51.56025
51
132.6332
0
CIRCLE
8
3
62
7
10
1.628623
20
0.6934771
40
0.004213074
0
CIRCLE
8
3
62
7
10
1.663175
20
0.6939844
40
0.004213074
0
ARC
8
3
62
7
10
1.680289
20
0.7171304
40
0.01483664
50
231.5636
51
312.6365
0
ARC
8
3
62
7
10
1.680789
20
0.6709446
40
0.01483664
50
48.60532
51
129.6782
0
CIRCLE
8
3
62
7
10
1.594068
20
0.6932372
40
0.004213074
0
ARC
8
3
62
7
10
1.611182
20
0.7163836
40
0.01483664
50
231.5636
51
312.6365
0
ARC
8
3
62
7
10
1.611683
20
0.6701974
40
0.01483664
50
48.60532
51
129.6782
0
ARC
8
3
62
7
10
1.541906
20
0.7156333
40
0.01483664
50
228.602
51
309.6749
0
ARC
8
3
62
7
10
1.542404
20
0.6694476
40
0.01483664
50
51.56025
51
132.6332
0
CIRCLE
8
3
62
7
10
1.524965
20
0.6923551
40
0.004213074
0
CIRCLE
8
3
62
7
10
1.559516
20
0.6928627
40
0.004213074
0
ARC
8
3
62
7
10
1.57663
20
0.7160088
40
0.01483664
50
231.5636
51
312.6365
0
ARC
8
3
62
7
10
1.57713
20
0.6698229
40
0.01483664
50
48.60532
51
129.6782
0
ARC
8
3
62
7
10
1.697472
20
0.6939735
40
0.01417357
50
237.5346
51
132.7203
0
ARC
8
3
62
7
10
1.663176
20
0.6938495
40
0.01417357
50
50.89926
51
308.5312
0
ARC
8
3
62
7
10
1.628623
20
0.6934771
40
0.01417357
50
230.3229
51
125.7187
0
ARC
8
3
62
7
10
1.59407
20
0.6931023
40
0.01417357
50
46.89249
51
307.8403
0
ARC
8
3
62
7
10
1.559518
20
0.6927277
40
0.01417357
50
230.8758
51
128.7165
0
ARC
8
3
62
7
10
1.524965
20
0.6923551
40
0.01417357
50
48.6412
51
310.1595
0
CIRCLE
8
3
62
7
10
2.04283
20
0.6969611
40
0.004213074
0
POLYLINE
8
5
62
7
70
0
66
1
40
0
41
0
0
VERTEX
8
5
10
2.013042
20
0.6395583
0
VERTEX
8
5
10
2.00837
20
0.641823
0
VERTEX
8
5
10
2.030523
20
0.6875243
0
SEQEND
8
5
0
POLYLINE
8
5
62
7
70
0
66
1
40
0
41
0
0
VERTEX
8
5
10
2.036546
20
0.684628
0
VERTEX
8
5
10
2.014271
20
0.6386742
0
VERTEX
8
5
10
2.034272
20
0.6289791
0
VERTEX
8
5
10
2.059227
20
0.6804621
0
VERTEX
8
5
10
2.049885
20
0.6849913
0
SEQEND
8
5
0
POLYLINE
8
5
62
7
70
0
66
1
40
0
41
0
0
VERTEX
8
5
10
2.10646
20
0.6859331
0
VERTEX
8
5
10
2.102802
20
0.6844422
0
VERTEX
8
5
10
2.091305
20
0.6894903
0
SEQEND
8
5
0
POLYLINE
8
5
62
7
70
0
66
1
40
0
41
0
0
VERTEX
8
5
10
2.036317
20
0.684154
0
VERTEX
8
5
10
2.014267
20
0.6386666
0
VERTEX
8
5
10
2.034268
20
0.6289715
0
VERTEX
8
5
10
2.059224
20
0.6804544
0
VERTEX
8
5
10
2.05025
20
0.6848044
0
SEQEND
8
5
0
LINE
8
5
62
7
10
1.810055
20
0.6825253
11
1.875774
21
0.6515135
0
LINE
8
5
62
7
10
1.530807
20
0.6796152
11
1.768503
21
0.4989778
0
ARC
8
3
62
7
10
2.059297
20
0.7203688
40
0.01483664
50
231.5636
51
312.6365
0
ARC
8
3
62
7
10
2.595764
20
0.7026998
40
0.01417357
50
231.9669
51
129.4101
0
ARC
8
3
62
7
10
2.614023
20
0.6800179
40
0.01483664
50
52.31383
51
133.3867
0
CIRCLE
8
3
62
7
10
2.631725
20
0.7032129
40
0.004213074
0
ARC
8
3
62
7
10
2.631694
20
0.7033443
40
0.01417357
50
63.22495
51
323.1441
0
ARC
8
3
62
7
10
2.653926
20
0.6848902
40
0.01483664
50
61.35217
51
142.4251
0
ARC
8
3
62
7
10
2.643247
20
0.7298271
40
0.01483664
50
244.3105
51
325.3834
0
CIRCLE
8
3
62
7
10
2.665442
20
0.7111832
40
0.004213074
0
ARC
8
3
62
7
10
2.665408
20
0.7113141
40
0.01417357
50
245.9669
51
143.4101
0
ARC
8
3
62
7
10
2.724212
20
0.7099304
40
0.01483664
50
76.79353
51
157.8665
0
ARC
8
3
62
7
10
2.704073
20
0.751497
40
0.01483664
50
253.8352
51
334.9082
0
CIRCLE
8
3
62
7
10
2.698666
20
0.7230203
40
0.004213074
0
ARC
8
3
62
7
10
2.69861
20
0.7231428
40
0.01417357
50
75.80854
51
333.2517
0
ARC
8
3
62
7
10
2.689904
20
0.69564
40
0.01483664
50
71.45148
51
152.5244
0
ARC
8
3
62
7
10
2.674641
20
0.7389278
40
0.01483664
50
254.4097
51
335.4827
0
ARC
8
3
62
7
10
2.729768
20
0.7382848
40
0.01417357
50
116.874
51
155.9937
0
ARC
8
3
62
7
10
2.613754
20
0.7254791
40
0.01483664
50
229.3555
51
310.4284
0
CIRCLE
8
3
62
7
10
2.595765
20
0.7025649
40
0.004213074
0
ARC
8
3
62
7
10
2.578325
20
0.7254714
40
0.01483664
50
231.5636
51
312.6365
0
ARC
8
3
62
7
10
2.578825
20
0.6792855
40
0.01483664
50
48.60532
51
129.6782
0
CIRCLE
8
3
62
7
10
2.595765
20
0.7025649
40
0.004213074
0
CIRCLE
8
3
62
7
10
2.56121
20
0.7023253
40
0.004213074
0
ARC
8
3
62
7
10
2.509048
20
0.7247214
40
0.01483664
50
228.602
51
309.6749
0
ARC
8
3
62
7
10
2.509546
20
0.6785354
40
0.01483664
50
51.56025
51
132.6332
0
CIRCLE
8
3
62
7
10
2.492107
20
0.7014431
40
0.004213074
0
CIRCLE
8
3
62
7
10
2.526658
20
0.7019505
40
0.004213074
0
ARC
8
3
62
7
10
2.543772
20
0.7250969
40
0.01483664
50
231.5636
51
312.6365
0
ARC
8
3
62
7
10
2.544273
20
0.6789107
40
0.01483664
50
48.60532
51
129.6782
0
CIRCLE
8
3
62
7
10
2.457553
20
0.7012035
40
0.004213074
0
ARC
8
3
62
7
10
2.474667
20
0.7243497
40
0.01483664
50
231.5636
51
312.6365
0
ARC
8
3
62
7
10
2.475167
20
0.6781637
40
0.01483664
50
48.60532
51
129.6782
0
ARC
8
3
62
7
10
2.405648
20
0.7238502
40
0.01483664
50
228.602
51
309.6749
0
ARC
8
3
62
7
10
2.406145
20
0.677664
40
0.01483664
50
51.56025
51
132.6332
0
CIRCLE
8
3
62
7
10
2.388706
20
0.700572
40
0.004213074
0
CIRCLE
8
3
62
7
10
2.423258
20
0.7010793
40
0.004213074
0
ARC
8
3
62
7
10
2.440371
20
0.7242255
40
0.01483664
50
231.5636
51
312.6365
0
ARC
8
3
62
7
10
2.440872
20
0.6780395
40
0.01483664
50
48.60532
51
129.6782
0
CIRCLE
8
3
62
7
10
2.354151
20
0.7003321
40
0.004213074
0
ARC
8
3
62
7
10
2.371266
20
0.7234783
40
0.01483664
50
231.5636
51
312.6365
0
ARC
8
3
62
7
10
2.371766
20
0.6772923
40
0.01483664
50
48.60532
51
129.6782
0
ARC
8
3
62
7
10
2.301989
20
0.7227284
40
0.01483664
50
228.602
51
309.6749
0
ARC
8
3
62
7
10
2.302487
20
0.6765425
40
0.01483664
50
51.56025
51
132.6332
0
CIRCLE
8
3
62
7
10
2.285048
20
0.6994502
40
0.004213074
0
CIRCLE
8
3
62
7
10
2.319599
20
0.6999575
40
0.004213074
0
ARC
8
3
62
7
10
2.336713
20
0.7231035
40
0.01483664
50
231.5636
51
312.6365
0
ARC
8
3
62
7
10
2.337214
20
0.6769177
40
0.01483664
50
48.60532
51
129.6782
0
ARC
8
3
62
7
10
2.267607
20
0.7223567
40
0.01483664
50
231.5636
51
312.6365
0
ARC
8
3
62
7
10
2.268108
20
0.6761705
40
0.01483664
50
48.60532
51
129.6782
0
ARC
8
3
62
7
10
2.561213
20
0.7021903
40
0.01417357
50
49.58665
51
311.6842
0
ARC
8
3
62
7
10
2.52666
20
0.7018155
40
0.01417357
50
230.491
51
130.553
0
ARC
8
3
62
7
10
2.492107
20
0.7014431
40
0.01417357
50
47.30077
51
313.5754
0
ARC
8
3
62
7
10
2.457555
20
0.7010683
40
0.01417357
50
237.5346
51
132.7203
0
ARC
8
3
62
7
10
2.423259
20
0.7009441
40
0.01417357
50
50.89926
51
308.5312
0
ARC
8
3
62
7
10
2.388706
20
0.700572
40
0.01417357
50
230.3229
51
125.7187
0
ARC
8
3
62
7
10
2.354154
20
0.7001972
40
0.01417357
50
46.89249
51
307.8403
0
ARC
8
3
62
7
10
2.319601
20
0.6998226
40
0.01417357
50
230.8758
51
128.7165
0
ARC
8
3
62
7
10
2.285048
20
0.6994502
40
0.01417357
50
48.6412
51
310.1595
0
CIRCLE
8
3
62
7
10
2.250406
20
0.6997127
40
0.004213074
0
CIRCLE
8
3
62
7
10
2.21611
20
0.6995882
40
0.004213074
0
ARC
8
3
62
7
10
2.233224
20
0.7227342
40
0.01483664
50
231.5636
51
312.6365
0
ARC
8
3
62
7
10
2.233724
20
0.6765484
40
0.01483664
50
48.60532
51
129.6782
0
ARC
8
3
62
7
10
2.250407
20
0.6995773
40
0.01417357
50
237.5346
51
132.7203
0
LINE
8
1
62
7
10
2.439845
20
0.7529604
11
2.437408
21
0.7489764
0
ARC
8
1
62
7
10
2.596502
20
0.9881872
40
0.2875367
50
236.7951
51
239.137
0
LINE
8
1
62
7
10
2.472047
20
0.7345092
11
2.470175
21
0.7302355
0
LINE
8
1
62
7
10
2.451718
20
0.7454719
11
2.449173
21
0.7415559
0
ARC
8
1
62
7
10
2.461883
20
0.7399907
40
0.01154807
50
331.6635
51
151.6635
0
ARC
8
1
62
7
10
2.596502
20
0.9881872
40
0.2875367
50
243.9288
51
246.2706
0
LINE
8
1
62
7
10
2.504514
20
0.7210173
11
2.503186
21
0.7165443
0
LINE
8
1
62
7
10
2.48298
20
0.7293708
11
2.480941
21
0.7251691
0
ARC
8
1
62
7
10
2.493747
20
0.7251942
40
0.01154807
50
338.7971
51
158.7971
0
ARC
8
1
62
7
10
2.596502
20
0.9881872
40
0.2875367
50
251.0533
51
253.3952
0
LINE
8
1
62
7
10
2.515979
20
0.717283
11
2.514477
21
0.7128605
0
ARC
8
1
62
7
10
2.527181
20
0.7144746
40
0.01154807
50
345.9264
51
165.9263
0
LINE
8
2
62
5
10
2.314681
20
0.9430741
11
1.386039
21
1.064587
0
LINE
8
5
62
7
10
1.42696
20
1.047394
11
1.950453
21
0.8144307
0
LINE
8
5
62
7
10
1.400706
20
1.417753
11
1.770949
21
1.695629
0
LINE
8
5
62
7
10
1.428437
20
1.545035
11
1.537614
21
1.758365
0
ARC
8
3
62
7
10
1.507347
20
1.279051
40
0.01483664
50
231.5636
51
312.6365
0
ARC
8
3
62
7
10
1.507848
20
1.232865
40
0.01483664
50
48.60532
51
129.6782
0
ARC
8
3
62
7
10
1.490235
20
1.25577
40
0.01417357
50
230.491
51
130.553
0
LINE
8
5
62
7
10
1.285665
20
1.267115
11
1.880808
21
1.543233
0
LINE
8
5
62
7
10
1.31025
20
1.113089
11
1.584629
21
1.246853
0
LINE
8
5
62
7
10
1.446531
20
1.103465
11
1.98841
21
1.238469
0
LINE
8
5
62
7
10
1.275517
20
1.148652
11
1.501036
21
1.100639
0
POLYLINE
8
2
62
5
70
0
66
1
40
0
41
0
0
VERTEX
8
2
10
1.556755
20
1.89671
0
VERTEX
8
2
10
1.500805
20
1.930152
0
VERTEX
8
2
10
1.483455
20
1.899825
0
VERTEX
8
2
10
1.532494
20
1.870146
0
SEQEND
8
2
0
ARC
8
1
62
7
10
1.11019
20
1.101019
40
0.1566593
50
5.595544
51
10.05049
0
ARC
8
1
62
7
10
1.292208
20
1.113573
40
0.01154807
50
93.29135
51
170.6581
0
ARC
8
1
62
7
10
1.280951
20
1.035676
40
0.01154807
50
68.40498
51
248.405
0
LINE
8
1
62
7
10
1.256333
20
0.9911751
11
1.260049
21
0.9883465
0
LINE
8
1
62
7
10
1.276878
20
1.025204
11
1.281464
21
1.02301
0
LINE
8
1
62
7
10
1.268662
20
1.010335
11
1.273124
21
1.007901
0
ARC
8
1
62
7
10
1.11019
20
1.101019
40
0.1880175
50
330.3095
51
335.5055
0
LINE
8
1
62
7
10
1.285201
20
1.046414
11
1.28967
21
1.045056
0
ARC
8
1
62
7
10
1.11019
20
1.101019
40
0.1880175
50
342.7035
51
346.3457
0
POLYLINE
8
2
62
1
70
1
66
1
40
0
41
0
0
VERTEX
8
2
10
1.387747
20
1.077649
0
VERTEX
8
2
10
1.387809
20
1.056967
0
VERTEX
8
2
10
1.366278
20
1.05791
0
VERTEX
8
2
10
1.366278
20
1.07757
0
SEQEND
8
2
0
ARC
8
3
62
7
10
1.473121
20
1.23249
40
0.01483664
50
51.56025
51
132.6332
0
ARC
8
3
62
7
10
1.438742
20
1.232118
40
0.01483664
50
48.60532
51
129.6782
0
ARC
8
3
62
7
10
1.455682
20
1.255397
40
0.01417357
50
47.30077
51
313.5754
0
ARC
8
3
62
7
10
1.352281
20
1.254526
40
0.01417357
50
230.3229
51
125.7187
0
CIRCLE
8
3
62
7
10
1.352281
20
1.254526
40
0.004213074
0
CIRCLE
8
3
62
7
10
1.317726
20
1.254286
40
0.004213074
0
ARC
8
3
62
7
10
1.334841
20
1.277433
40
0.01483664
50
231.5636
51
312.6365
0
ARC
8
3
62
7
10
1.335341
20
1.231247
40
0.01483664
50
48.60532
51
129.6782
0
CIRCLE
8
3
62
7
10
1.283174
20
1.253912
40
0.004213074
0
ARC
8
3
62
7
10
1.300288
20
1.277058
40
0.01483664
50
231.5636
51
312.6365
0
ARC
8
3
62
7
10
1.300789
20
1.230872
40
0.01483664
50
48.60532
51
129.6782
0
ARC
8
3
62
7
10
1.317729
20
1.254151
40
0.01417357
50
46.89249
51
307.8403
0
ARC
8
3
62
7
10
1.266062
20
1.230497
40
0.01483664
50
51.56025
51
102.476
0
ARC
8
3
62
7
10
1.283176
20
1.253777
40
0.01417357
50
230.8758
51
101.0476
0
ARC
8
3
62
7
10
1.386834
20
1.254898
40
0.01417357
50
50.89926
51
308.5312
0
ARC
8
3
62
7
10
1.404447
20
1.231994
40
0.01483664
50
48.60532
51
129.6782
0
CIRCLE
8
3
62
7
10
1.490233
20
1.255905
40
0.004213074
0
ARC
8
3
62
7
10
1.403946
20
1.27818
40
0.01483664
50
231.5636
51
312.6365
0
ARC
8
3
62
7
10
1.438242
20
1.278304
40
0.01483664
50
231.5636
51
312.6365
0
ARC
8
3
62
7
10
1.36972
20
1.231618
40
0.01483664
50
51.56025
51
132.6332
0
CIRCLE
8
3
62
7
10
1.386833
20
1.255034
40
0.004213074
0
ARC
8
3
62
7
10
1.369223
20
1.277804
40
0.01483664
50
228.602
51
309.6749
0
CIRCLE
8
3
62
7
10
1.421128
20
1.255158
40
0.004213074
0
CIRCLE
8
3
62
7
10
1.455682
20
1.255397
40
0.004213074
0
ARC
8
3
62
7
10
1.472623
20
1.278676
40
0.01483664
50
228.602
51
309.6749
0
ARC
8
3
62
7
10
1.42113
20
1.255023
40
0.01417357
50
237.5346
51
132.7203
0
LINE
8
1
62
7
10
1.276474
20
1.176515
11
1.280738
21
1.17842
0
ARC
8
1
62
7
10
1.270918
20
1.186638
40
0.01154807
50
118.7571
51
298.7571
0
LINE
8
1
62
7
10
1.282279
20
1.162374
11
1.287031
21
1.164179
0
LINE
8
1
62
7
10
1.288807
20
1.140545
11
1.293372
21
1.141527
0
ARC
8
1
62
7
10
1.285465
20
1.151599
40
0.01154807
50
106.818
51
286.818
0
LINE
8
1
62
7
10
1.291545
20
1.125102
11
1.29617
21
1.12575
0
ARC
8
1
62
7
10
1.11019
20
1.101019
40
0.1880175
50
19.71735
51
24.44894
0
ARC
8
1
62
7
10
1.11019
20
1.101019
40
0.1880175
50
7.589843
51
12.50979
0
LINE
8
1
62
7
10
1.259037
20
1.127454
11
1.264613
21
1.128216
0
LINE
8
1
62
7
10
1.265572
20
1.196521
11
1.269848
21
1.19927
0
LINE
8
1
62
7
10
1.256476
20
1.211108
11
1.2606
21
1.214079
0
ARC
8
1
62
7
10
1.11019
20
1.101019
40
0.1880175
50
31.7256
51
36.85244
0
LINE
8
1
62
7
10
1.286438
20
1.267573
11
1.295656
21
1.285584
0
LINE
8
1
62
7
10
1.259106
20
1.214166
11
1.27323
21
1.241765
0
LINE
8
1
62
7
10
2.649134
20
1.034143
11
2.761527
21
1.138971
0
ARC
8
1
62
7
10
2.596502
20
0.9850539
40
0.2353632
50
138.0782
51
185.5848
0
POLYLINE
8
5
62
7
70
1
66
1
40
0
41
0
0
VERTEX
8
5
10
2.170079
20
1.085574
0
VERTEX
8
5
10
2.192302
20
1.085864
0
VERTEX
8
5
10
2.191556
20
1.143072
0
VERTEX
8
5
10
2.169332
20
1.142782
0
SEQEND
8
5
0
POLYLINE
8
5
62
7
70
0
66
1
40
0
41
0
0
VERTEX
8
5
10
2.122586
20
1.052801
0
VERTEX
8
5
10
2.119482
20
1.052761
0
VERTEX
8
5
10
2.117901
20
1.173867
0
VERTEX
8
5
10
2.122559
20
1.173928
0
SEQEND
8
5
0
POLYLINE
8
5
62
7
70
1
66
1
40
0
41
0
0
VERTEX
8
5
10
2.144323
20
1.053085
0
VERTEX
8
5
10
2.142743
20
1.174191
0
VERTEX
8
5
10
2.122559
20
1.173928
0
VERTEX
8
5
10
2.12414
20
1.052822
0
SEQEND
8
5
0
POLYLINE
8
5
62
7
70
0
66
1
40
0
41
0
0
VERTEX
8
5
10
2.168583
20
1.085814
0
VERTEX
8
5
10
2.163391
20
1.085747
0
VERTEX
8
5
10
2.162652
20
1.142435
0
VERTEX
8
5
10
2.167843
20
1.142503
0
SEQEND
8
5
0
ARC
8
5
62
7
10
1.11019
20
1.101019
40
0.8914266
50
0
51
9.687195
0
ARC
8
5
62
7
10
1.11019
20
1.101019
40
0.9363798
50
357.2482
51
9.15111
0
LINE
8
1
62
7
10
2.441305
20
1.122945
11
2.437835
21
1.126071
0
LINE
8
1
62
7
10
2.533805
20
1.121866
11
2.531873
21
1.126117
0
ARC
8
1
62
7
10
2.559291
20
1.130393
40
0.01154807
50
194.4714
51
14.47135
0
LINE
8
1
62
7
10
2.659481
20
1.121736
11
2.661422
21
1.125984
0
ARC
8
1
62
7
10
2.634012
20
1.130316
40
0.01154807
50
165.4106
51
345.4106
0
ARC
8
1
62
7
10
2.596346
20
1.135081
40
0.01154807
50
180.1701
51
0.1700665
0
LINE
8
1
62
7
10
2.544994
20
1.035321
11
2.435
21
1.142663
0
LINE
8
1
62
7
10
2.564802
20
1.049668
11
2.497109
21
1.187649
0
LINE
8
1
62
7
10
2.628202
20
1.049668
11
2.695895
21
1.187649
0
ARC
8
1
62
7
10
2.596502
20
0.9850539
40
0.2875367
50
149.7815
51
152.1233
0
POLYLINE
8
2
62
5
70
0
66
1
40
0
41
0
0
VERTEX
8
2
10
2.642058
20
1.29737
0
VERTEX
8
2
10
2.66561
20
1.327564
0
VERTEX
8
2
10
2.507472
20
1.362072
0
VERTEX
8
2
10
2.436814
20
1.340505
0
VERTEX
8
2
10
2.265217
20
1.098949
0
VERTEX
8
2
10
2.295499
20
1.073068
0
SEQEND
8
2
0
ARC
8
2
62
5
10
2.596502
20
0.9850539
40
0.3164297
50
81.5866
51
163.8718
0
ARC
8
1
62
7
10
2.596503
20
0.9850539
40
0.2112193
50
40.76106
51
43.38876
0
LINE
8
1
62
7
10
2.732532
20
0.9206785
11
2.736748
21
0.9186682
0
ARC
8
1
62
7
10
2.596503
20
0.9850539
40
0.1704106
50
351.2388
51
43.45107
0
LINE
8
1
62
7
10
2.730146
20
1.054247
11
2.734299
21
1.056382
0
ARC
8
1
62
7
10
2.739793
20
1.029506
40
0.01154807
50
107.1247
51
287.1247
0
ARC
8
1
62
7
10
2.596502
20
0.9850539
40
0.04997968
50
35.92872
51
219.6213
0
ARC
8
1
62
7
10
2.597608
20
0.9878896
40
0.1153207
50
137.5851
51
188.961
0
ARC
8
1
62
7
10
2.45446
20
1.032801
40
0.01154807
50
252.4707
51
72.47069
0
ARC
8
1
62
7
10
2.597608
20
0.9885985
40
0.1704106
50
136.5848
51
188.7971
0
ARC
8
1
62
7
10
2.597608
20
0.9885985
40
0.2112193
50
165.8391
51
169.6495
0
ARC
8
1
62
7
10
2.596502
20
0.9850539
40
0.06331615
50
31.90712
51
228.3067
0
ARC
8
1
62
7
10
2.596503
20
0.9850539
40
0.1153207
50
351.1234
51
43.615
0
ARC
8
1
62
7
10
2.655552
20
1.027262
40
0.009784705
50
121.2527
51
219.9198
0
ARC
8
1
62
7
10
2.538422
20
1.028587
40
0.009784705
50
318.7844
51
57.45146
0
ARC
8
1
62
7
10
2.596502
20
0.9850539
40
0.2875367
50
171.1354
51
173.4773
0
ARC
8
2
62
1
10
2.596502
20
0.9850539
40
0.08539499
50
353.7073
51
42.77848
0
ARC
8
2
62
1
10
2.596502
20
0.9850539
40
0.08539499
50
136.1068
51
187.832
0
POLYLINE
8
5
62
7
70
0
66
1
40
0
41
0
0
VERTEX
8
5
10
2.169884
20
0.8963305
0
VERTEX
8
5
10
2.16766
20
0.8995952
0
VERTEX
8
5
10
2.138739
20
0.9046146
0
VERTEX
8
5
10
2.124151
20
0.8386983
0
VERTEX
8
5
10
2.126622
20
0.8362049
0
SEQEND
8
5
0
POLYLINE
8
5
62
7
70
1
66
1
40
0
41
0
0
VERTEX
8
5
10
2.162466
20
0.8527815
0
VERTEX
8
5
10
2.146151
20
0.8563108
0
VERTEX
8
5
10
2.139724
20
0.8328564
0
VERTEX
8
5
10
2.12761
20
0.8358883
0
VERTEX
8
5
10
2.14294
20
0.9007158
0
VERTEX
8
5
10
2.170873
20
0.8960144
0
SEQEND
8
5
0
POLYLINE
8
5
62
7
70
1
66
1
40
0
41
0
0
VERTEX
8
5
10
2.154799
20
0.9252661
0
VERTEX
8
5
10
2.17679
20
0.9220432
0
VERTEX
8
5
10
2.185086
20
0.9786516
0
VERTEX
8
5
10
2.163094
20
0.9818746
0
SEQEND
8
5
0
POLYLINE
8
5
62
7
70
0
66
1
40
0
41
0
0
VERTEX
8
5
10
2.15336
20
0.9257396
0
VERTEX
8
5
10
2.148224
20
0.9264923
0
VERTEX
8
5
10
2.156443
20
0.9825865
0
VERTEX
8
5
10
2.16158
20
0.9818343
0
SEQEND
8
5
0
POLYLINE
8
5
62
7
70
1
66
1
40
0
41
0
0
VERTEX
8
5
10
2.154801
20
0.9252747
0
VERTEX
8
5
10
2.176792
20
0.9220523
0
VERTEX
8
5
10
2.185087
20
0.9786602
0
VERTEX
8
5
10
2.163095
20
0.9818832
0
SEQEND
8
5
0
POLYLINE
8
5
62
7
70
0
66
1
40
0
41
0
0
VERTEX
8
5
10
2.153361
20
0.9257478
0
VERTEX
8
5
10
2.148225
20
0.9265004
0
VERTEX
8
5
10
2.156444
20
0.9825951
0
VERTEX
8
5
10
2.16158
20
0.9818429
0
SEQEND
8
5
0
POLYLINE
8
5
62
7
70
1
66
1
40
0
41
0
0
VERTEX
8
5
10
2.111528
20
0.9323562
0
VERTEX
8
5
10
2.133519
20
0.9291333
0
VERTEX
8
5
10
2.141815
20
0.9857417
0
VERTEX
8
5
10
2.119824
20
0.9889647
0
SEQEND
8
5
0
POLYLINE
8
5
62
7
70
0
66
1
40
0
41
0
0
VERTEX
8
5
10
2.110089
20
0.9328297
0
VERTEX
8
5
10
2.104953
20
0.9335824
0
VERTEX
8
5
10
2.113173
20
0.9896766
0
VERTEX
8
5
10
2.118309
20
0.9889244
0
SEQEND
8
5
0
POLYLINE
8
5
62
7
70
1
66
1
40
0
41
0
0
VERTEX
8
5
10
2.11153
20
0.9323643
0
VERTEX
8
5
10
2.133521
20
0.9291419
0
VERTEX
8
5
10
2.141816
20
0.9857503
0
VERTEX
8
5
10
2.119825
20
0.9889733
0
SEQEND
8
5
0
POLYLINE
8
5
62
7
70
0
66
1
40
0
41
0
0
VERTEX
8
5
10
2.11009
20
0.9328378
0
VERTEX
8
5
10
2.104954
20
0.9335905
0
VERTEX
8
5
10
2.113173
20
0.9896852
0
VERTEX
8
5
10
2.11831
20
0.988933
0
SEQEND
8
5
0
ARC
8
5
62
7
10
1.153499
20
1.101584
40
1.028951
50
348.4656
51
350.0511
0
POLYLINE
8
5
62
7
70
0
66
1
40
0
41
0
0
VERTEX
8
5
10
2.131633
20
0.8233866
0
VERTEX
8
5
10
2.126662
20
0.8248855
0
VERTEX
8
5
10
2.110299
20
0.7706046
0
VERTEX
8
5
10
2.115269
20
0.7691063
0
SEQEND
8
5
0
ARC
8
5
62
7
10
1.151659
20
1.088517
40
1.028951
50
344.8625
51
346.8819
0
POLYLINE
8
5
62
7
70
1
66
1
40
0
41
0
0
VERTEX
8
5
10
2.133137
20
0.8232047
0
VERTEX
8
5
10
2.154418
20
0.8167891
0
VERTEX
8
5
10
2.137904
20
0.7620117
0
VERTEX
8
5
10
2.116624
20
0.7684266
0
SEQEND
8
5
0
LINE
8
5
62
7
10
1.93693
20
1.007838
11
1.995991
21
0.9952639
0
ARC
8
5
62
7
10
1.153499
20
1.101584
40
1.028951
50
353.2309
51
353.6113
0
LINE
8
1
62
7
10
2.040691
20
0.9962505
11
2.041044
21
0.9999548
0
LINE
8
1
62
7
10
2.593667
20
0.9606463
11
2.599337
21
0.9606463
0
LINE
8
1
62
7
10
2.593667
20
1.009462
11
2.599337
21
1.009462
0
LINE
8
1
62
7
10
2.599387
20
0.9850539
11
2.599337
21
0.9606463
0
LINE
8
1
62
7
10
2.599387
20
0.9850539
11
2.599337
21
1.009462
0
LINE
8
1
62
7
10
2.593617
20
0.9850539
11
2.593667
21
0.9606463
0
LINE
8
1
62
7
10
2.593617
20
0.9850539
11
2.593667
21
1.009462
0
CIRCLE
8
1
62
7
10
2.596502
20
0.9850539
40
0.0351596
0
ARC
8
1
62
7
10
2.450741
20
0.9572598
40
0.01154807
50
53.11944
51
101.891
0
ARC
8
1
62
7
10
2.597608
20
0.9878896
40
0.1553918
50
181.4014
51
187.3795
0
ARC
8
1
62
7
10
2.597608
20
0.9878896
40
0.1553918
50
166.9821
51
172.7135
0
LINE
8
1
62
7
10
2.448361
20
0.9685599
11
2.443727
21
0.9679741
0
LINE
8
1
62
7
10
2.44716
20
0.9842089
11
2.442491
21
0.9840802
0
LINE
8
1
62
7
10
2.448328
20
1.006963
11
2.443697
21
1.007569
0
ARC
8
1
62
7
10
2.44777
20
0.9954282
40
0.01154807
50
267.2302
51
87.2302
0
LINE
8
1
62
7
10
2.450982
20
1.021789
11
2.446429
21
1.022827
0
ARC
8
1
62
7
10
2.597608
20
0.9885985
40
0.2112193
50
176.0461
51
179.7103
0
ARC
8
1
62
7
10
2.597608
20
0.9885985
40
0.2112193
50
186.107
51
188.7347
0
LINE
8
1
62
7
10
2.391505
20
0.9895331
11
2.386836
21
0.989664
0
ARC
8
1
62
7
10
2.392124
20
0.9780015
40
0.01154807
50
273.0787
51
93.07875
0
LINE
8
1
62
7
10
2.392
20
1.002917
11
2.387335
21
1.003132
0
LINE
8
1
62
7
10
2.394837
20
1.025524
11
2.390263
21
1.026468
0
ARC
8
1
62
7
10
2.393433
20
1.014062
40
0.01154807
50
263.0179
51
83.01787
0
ARC
8
1
62
7
10
2.595396
20
0.9857625
40
0.1153207
50
204.196
51
256.6876
0
ARC
8
1
62
7
10
2.595396
20
0.9857625
40
0.1704106
50
204.3115
51
256.5237
0
ARC
8
1
62
7
10
2.455661
20
0.9311532
40
0.01154807
50
291.2353
51
343.4998
0
ARC
8
1
62
7
10
2.595396
20
0.9857625
40
0.1553918
50
205.7468
51
211.6044
0
ARC
8
1
62
7
10
2.595396
20
0.9857625
40
0.1553918
50
220.4129
51
226.0209
0
ARC
8
1
62
7
10
2.595396
20
0.9857625
40
0.1553918
50
234.7088
51
240.4401
0
ARC
8
1
62
7
10
2.595396
20
0.9857625
40
0.2112193
50
204.3607
51
207.017
0
ARC
8
1
62
7
10
2.595396
20
0.9857625
40
0.2112193
50
213.4136
51
217.02
0
LINE
8
1
62
7
10
2.411831
20
0.8920426
11
2.407623
21
0.8900174
0
LINE
8
1
62
7
10
2.423298
20
0.872354
11
2.419459
21
0.8696937
0
ARC
8
1
62
7
10
2.417516
20
0.8823504
40
0.01154807
50
300.0453
51
120.0453
0
LINE
8
1
62
7
10
2.431027
20
0.8614163
11
2.427237
21
0.8586869
0
ARC
8
1
62
7
10
2.438317
20
0.8528656
40
0.01154807
50
310.1062
51
130.1062
0
LINE
8
1
62
7
10
2.459843
20
0.9203891
11
2.455643
21
0.9183472
0
LINE
8
1
62
7
10
2.467389
20
0.9066271
11
2.463409
21
0.9041833
0
LINE
8
1
62
7
10
2.480803
20
0.8882098
11
2.477256
21
0.8851714
0
ARC
8
1
62
7
10
2.474032
20
0.8975648
40
0.01154807
50
305.8961
51
125.8961
0
LINE
8
1
62
7
10
2.521165
20
0.8548502
11
2.518849
21
0.8507952
0
ARC
8
1
62
7
10
2.531628
20
0.8499627
40
0.01154807
50
334.9569
51
154.9569
0
LINE
8
1
62
7
10
2.490904
20
0.8774595
11
2.487651
21
0.8741083
0
LINE
8
1
62
7
10
2.508451
20
0.8629259
11
2.505765
21
0.859106
0
ARC
8
1
62
7
10
2.49958
20
0.8703184
40
0.01154807
50
320.1974
51
140.1974
0
LINE
8
1
62
7
10
2.577894
20
0.9107629
11
2.541673
21
0.7661528
0
ARC
8
1
62
7
10
2.596502
20
0.9850539
40
0.06280339
50
211.1215
51
219.3381
0
ARC
8
1
62
7
10
2.596502
20
0.9850539
40
0.1704106
50
283.8797
51
290.392
0
ARC
8
1
62
7
10
2.596502
20
0.9850539
40
0.1553918
50
285.315
51
288.5938
0
ARC
8
1
62
7
10
2.596502
20
0.9850539
40
0.2112193
50
292.9819
51
294.6864
0
LINE
8
1
62
7
10
2.62782
20
0.8552622
11
2.649435
21
0.7656869
0
ARC
8
1
62
7
10
2.736635
20
0.9314731
40
0.01154807
50
200.4143
51
249.1859
0
ARC
8
1
62
7
10
2.624908
20
0.8377404
40
0.01154807
50
10.80352
51
63.06807
0
ARC
8
1
62
7
10
2.596502
20
0.9850539
40
0.2112193
50
283.929
51
286.5852
0
LINE
8
1
62
7
10
2.655436
20
0.7875535
11
2.656666
21
0.7830483
0
LINE
8
1
62
7
10
2.676875
20
0.7952654
11
2.678797
21
0.7910089
0
ARC
8
1
62
7
10
2.665997
20
0.7913889
40
0.01154807
50
19.61353
51
199.6135
0
LINE
8
1
62
7
10
2.636251
20
0.8399045
11
2.637499
21
0.8354041
0
ARC
8
1
62
7
10
2.534365
20
0.9475387
40
0.009784705
50
26.75861
51
125.4257
0
ARC
8
1
62
7
10
2.393843
20
0.885981
40
0.009784705
50
103.0159
51
218.771
0
LINE
8
1
62
7
10
2.530586
20
0.9561561
11
2.389828
21
0.8944463
0
ARC
8
1
62
7
10
2.596502
20
0.9850539
40
0.06280339
50
143.1473
51
180.5158
0
ARC
8
1
62
7
10
2.523921
20
0.9844004
40
0.009784705
50
266.2116
51
4.878619
0
ARC
8
1
62
7
10
2.371994
20
0.9631006
40
0.009784705
50
172.8662
51
288.6213
0
LINE
8
1
62
7
10
2.525225
20
0.9750816
11
2.373016
21
0.9537874
0
ARC
8
1
62
7
10
2.328554
20
0.8991472
40
0.01154807
50
288.5203
51
108.5203
0
LINE
8
1
62
7
10
2.324887
20
0.9100972
11
2.320351
21
0.90898
0
LINE
8
1
62
7
10
2.332223
20
0.8881971
11
2.327934
21
0.8863594
0
LINE
8
1
62
7
10
2.336684
20
0.8771173
11
2.332319
21
0.8754703
0
ARC
8
1
62
7
10
2.596502
20
0.9881874
40
0.2875367
50
200.7643
51
203.1062
0
ARC
8
1
62
7
10
2.596502
20
0.9881874
40
0.2875367
50
193.6473
51
195.9891
0
ARC
8
1
62
7
10
2.319576
20
0.9330899
40
0.01154807
50
281.3911
51
101.3911
0
LINE
8
1
62
7
10
2.317295
20
0.9444104
11
2.312656
21
0.9438649
0
LINE
8
1
62
7
10
2.321856
20
0.9217693
11
2.317373
21
0.9204775
0
ARC
8
1
62
7
10
2.596502
20
0.9881874
40
0.2875367
50
186.5227
51
188.8646
0
ARC
8
1
62
7
10
2.314877
20
0.9679061
40
0.01154807
50
274.2574
51
94.2574
0
LINE
8
1
62
7
10
2.31402
20
0.9794227
11
2.30935
21
0.979457
0
LINE
8
1
62
7
10
2.315734
20
0.95639
11
2.311125
21
0.9556652
0
ARC
8
1
62
7
10
2.596502
20
0.9881874
40
0.2875367
50
207.8767
51
210.2185
0
LINE
8
1
62
7
10
2.346573
20
0.8562452
11
2.34253
21
0.8539073
0
ARC
8
1
62
7
10
2.341629
20
0.8666813
40
0.01154807
50
295.3502
51
115.3502
0
ARC
8
1
62
7
10
2.314877
20
1.005335
40
0.01154807
50
265.7426
51
85.74258
0
LINE
8
1
62
7
10
2.31402
20
0.9938186
11
2.30935
21
0.9937843
0
LINE
8
1
62
7
10
2.315734
20
1.016851
11
2.311125
21
1.017576
0
ARC
8
1
62
7
10
2.596502
20
0.9850539
40
0.2875367
50
178.2691
51
180.6109
0
ARC
8
1
62
7
10
2.568074
20
0.8382444
40
0.01154807
50
120.8461
51
169.6177
0
ARC
8
1
62
7
10
2.3587
20
0.8359568
40
0.01154807
50
302.764
51
122.764
0
ARC
8
1
62
7
10
2.595396
20
0.9857625
40
0.1553918
50
249.1281
51
255.1062
0
ARC
8
1
62
7
10
2.595396
20
0.9857625
40
0.2112193
50
223.4746
51
227.1989
0
ARC
8
1
62
7
10
2.595396
20
0.9857625
40
0.2112193
50
233.5658
51
237.3761
0
LINE
8
1
62
7
10
2.445756
20
0.8440332
11
2.442441
21
0.840743
0
ARC
8
1
62
7
10
2.527319
20
0.7915949
40
0.01154807
50
340.8054
51
160.8054
0
LINE
8
1
62
7
10
2.556715
20
0.8403253
11
2.555501
21
0.8358154
0
LINE
8
1
62
7
10
2.541778
20
0.8451452
11
2.540128
21
0.8407759
0
LINE
8
1
62
7
10
2.504215
20
0.8009233
11
2.502249
21
0.7966875
0
LINE
8
1
62
7
10
2.48437
20
0.812117
11
2.481763
21
0.8082423
0
ARC
8
1
62
7
10
2.494446
20
0.8064737
40
0.01154807
50
330.7446
51
150.7445
0
LINE
8
1
62
7
10
2.455357
20
0.8345394
11
2.452104
21
0.8311886
0
LINE
8
1
62
7
10
2.472904
20
0.8200063
11
2.470217
21
0.8161864
0
ARC
8
1
62
7
10
2.464032
20
0.8273987
40
0.01154807
50
320.1974
51
140.1974
0
ARC
8
1
62
7
10
2.596502
20
0.9881874
40
0.2875367
50
215.008
51
217.3499
0
LINE
8
1
62
7
10
2.364949
20
0.826246
11
2.361245
21
0.8234093
0
LINE
8
1
62
7
10
2.35245
20
0.8456675
11
2.34833
21
0.8434693
0
LINE
8
1
62
7
10
2.372
20
0.8166043
11
2.368174
21
0.8139336
0
ARC
8
1
62
7
10
2.37936
20
0.8077061
40
0.01154807
50
309.5939
51
129.5939
0
ARC
8
1
62
7
10
2.595396
20
0.9857625
40
0.2112193
50
243.7728
51
247.437
0
ARC
8
1
62
7
10
2.595396
20
0.9857625
40
0.2112193
50
253.8337
51
256.4614
0
LINE
8
1
62
7
10
2.537908
20
0.7878365
11
2.536711
21
0.7833228
0
LINE
8
1
62
7
10
2.516413
20
0.7953915
11
2.514522
21
0.7911214
0
LINE
8
1
62
7
10
2.421193
20
0.7665827
11
2.418144
21
0.7630517
0
ARC
8
1
62
7
10
2.596502
20
0.9881874
40
0.2875367
50
229.2496
51
231.5915
0
LINE
8
1
62
7
10
2.395031
20
0.7900688
11
2.391566
21
0.7869436
0
LINE
8
1
62
7
10
2.411846
20
0.7742359
11
2.408933
21
0.7705852
0
ARC
8
1
62
7
10
2.403439
20
0.7821519
40
0.01154807
50
316.7231
51
136.7231
0
ARC
8
1
62
7
10
2.596502
20
0.9881874
40
0.2875367
50
222.1251
51
224.4669
0
LINE
8
1
62
7
10
2.386721
20
0.7988068
11
2.383377
21
0.7955467
0
LINE
8
2
62
1
10
2.432662
20
1.0262
11
2.456171
21
1.024366
0
LINE
8
2
62
1
10
2.488413
20
1.02185
11
2.51864
21
1.019492
0
LINE
8
1
62
7
10
2.39266
20
0.9667779
11
2.388029
21
0.9661747
0
LINE
8
2
62
1
10
2.361765
20
0.9750055
11
2.402067
21
0.971861
0
LINE
8
2
62
1
10
2.429103
20
0.9697517
11
2.446064
21
0.9684285
0
LINE
8
2
62
1
10
2.679631
20
0.9944276
11
2.706156
21
1.01669
0
ARC
8
2
62
1
10
2.596502
20
0.9850539
40
0.08539499
50
204.4793
51
256.1674
0
LINE
8
2
62
5
10
2.54354
20
0.9131278
11
2.500929
21
0.9187034
0
ARC
8
5
62
7
10
1.153499
20
1.101584
40
1.028951
50
357.0893
51
359.1086
0
POLYLINE
8
5
62
7
70
0
66
1
40
0
41
0
0
VERTEX
8
5
10
2.155587
20
1.047771
0
VERTEX
8
5
10
2.157162
20
1.073165
0
VERTEX
8
5
10
2.160226
20
1.074879
0
SEQEND
8
5
0
POLYLINE
8
5
62
7
70
0
66
1
40
0
41
0
0
VERTEX
8
5
10
2.189704
20
1.044541
0
VERTEX
8
5
10
2.1901
20
1.049049
0
VERTEX
8
5
10
2.173445
20
1.050162
0
VERTEX
8
5
10
2.173743
20
1.074479
0
VERTEX
8
5
10
2.161265
20
1.07491
0
VERTEX
8
5
10
2.159894
20
1.046117
0
SEQEND
8
5
0
ARC
8
5
62
7
10
1.11019
20
1.101019
40
0.8914266
50
357.3102
51
0
0
ARC
8
1
62
7
10
2.494109
20
1.0965
40
0.01154807
50
223.5086
51
268.8233
0
ARC
8
1
62
7
10
2.597608
20
0.9878896
40
0.1553918
50
138.0201
51
143.8777
0
ARC
8
1
62
7
10
2.597608
20
0.9878896
40
0.1553918
50
152.6863
51
158.2942
0
LINE
8
1
62
7
10
2.485734
20
1.08855
11
2.482253
21
1.091663
0
LINE
8
1
62
7
10
2.475859
20
1.076351
11
2.472089
21
1.079108
0
LINE
8
1
62
7
10
2.4639
20
1.056958
11
2.459744
21
1.059088
0
ARC
8
1
62
7
10
2.469991
20
1.066769
40
0.01154807
50
238.1694
51
58.16941
0
LINE
8
1
62
7
10
2.45778
20
1.043535
11
2.453446
21
1.045275
0
ARC
8
1
62
7
10
2.597608
20
0.9885985
40
0.2112193
50
145.687
51
149.2934
0
ARC
8
1
62
7
10
2.597608
20
0.9885985
40
0.2112193
50
155.7479
51
159.4722
0
LINE
8
1
62
7
10
2.427431
20
1.104872
11
2.423514
21
1.107415
0
ARC
8
1
62
7
10
2.43449
20
1.114011
40
0.01154807
50
232.3186
51
52.31862
0
LINE
8
1
62
7
10
2.420239
20
1.093573
11
2.416277
21
1.096046
0
LINE
8
1
62
7
10
2.409735
20
1.073354
11
2.405435
21
1.075174
0
ARC
8
1
62
7
10
2.41509
20
1.083587
40
0.01154807
50
242.3795
51
62.37948
0
LINE
8
1
62
7
10
2.404589
20
1.060871
11
2.400255
21
1.062612
0
LINE
8
1
62
7
10
2.397792
20
1.039125
11
2.393238
21
1.040163
0
ARC
8
1
62
7
10
2.40127
20
1.050137
40
0.01154807
50
252.4707
51
72.47069
0
ARC
8
1
62
7
10
2.699898
20
1.093761
40
0.01154807
50
267.7735
51
316.545
0
ARC
8
1
62
7
10
2.596503
20
0.9850539
40
0.1553918
50
36.05542
51
42.03354
0
LINE
8
1
62
7
10
2.708282
20
1.085819
11
2.71176
21
1.088936
0
LINE
8
1
62
7
10
2.718168
20
1.073629
11
2.721936
21
1.07639
0
ARC
8
1
62
7
10
2.724046
20
1.064053
40
0.01154807
50
121.8842
51
301.8842
0
ARC
8
1
62
7
10
2.596502
20
0.9850539
40
0.1153207
50
63.67979
51
116.1714
0
ARC
8
1
62
7
10
2.669556
20
1.116093
40
0.01154807
50
150.7498
51
199.5213
0
ARC
8
1
62
7
10
2.523718
20
1.116243
40
0.01154807
50
336.8676
51
29.13216
0
ARC
8
1
62
7
10
2.596502
20
0.9850539
40
0.06280339
50
71.31575
51
108.6843
0
ARC
8
1
62
7
10
2.57325
20
1.053813
40
0.009784705
50
194.3801
51
293.0471
0
ARC
8
1
62
7
10
2.619755
20
1.053813
40
0.009784705
50
246.9529
51
345.6199
0
ARC
8
1
62
7
10
2.328554
20
1.074094
40
0.01154807
50
251.4798
51
71.47973
0
LINE
8
1
62
7
10
2.324887
20
1.063144
11
2.320351
21
1.064261
0
LINE
8
1
62
7
10
2.332223
20
1.085044
11
2.327934
21
1.086882
0
LINE
8
1
62
7
10
2.336684
20
1.096124
11
2.332319
21
1.097771
0
ARC
8
1
62
7
10
2.596502
20
0.9850539
40
0.2875367
50
156.8938
51
159.2357
0
ARC
8
1
62
7
10
2.596502
20
0.9850539
40
0.2875367
50
164.0109
51
166.3527
0
ARC
8
1
62
7
10
2.319576
20
1.040151
40
0.01154807
50
258.6089
51
78.60893
0
LINE
8
1
62
7
10
2.317295
20
1.028831
11
2.312656
21
1.029376
0
LINE
8
1
62
7
10
2.321856
20
1.051472
11
2.317373
21
1.052764
0
LINE
8
1
62
7
10
2.346573
20
1.116996
11
2.34253
21
1.119334
0
ARC
8
1
62
7
10
2.341629
20
1.10656
40
0.01154807
50
244.6498
51
64.6498
0
LINE
8
2
62
1
10
2.366667
20
1.031349
11
2.391855
21
1.029384
0
LINE
8
2
62
1
10
2.527179
20
1.034099
11
2.518097
21
1.06205
0
LINE
8
2
62
1
10
2.626601
20
1.065687
11
2.616084
21
1.098052
0
ARC
8
2
62
1
10
2.596502
20
0.9850539
40
0.08539499
50
63.43076
51
116.2177
0
ARC
8
1
62
7
10
2.596502
20
0.9850539
40
0.1704106
50
329.6004
51
336.0919
0
ARC
8
1
62
7
10
2.596502
20
0.9850539
40
0.2112193
50
325.3736
51
327.0052
0
ARC
8
1
62
7
10
2.596502
20
0.9850539
40
0.1553918
50
332.0221
51
334.6744
0
ARC
8
1
62
7
10
2.596502
20
0.9850539
40
0.2112193
50
333.4019
51
336.0297
0
LINE
8
1
62
7
10
2.780748
20
0.8926787
11
2.784971
21
0.8906841
0
LINE
8
1
62
7
10
2.769426
20
0.8729066
11
2.773283
21
0.870274
0
ARC
8
1
62
7
10
2.775134
20
0.8829452
40
0.01154807
50
60.37367
51
240.3736
0
ARC
8
1
62
7
10
2.743398
20
0.9545616
40
0.01154807
50
78.16264
51
130.4272
0
ARC
8
1
62
7
10
2.596503
20
0.9850539
40
0.1553918
50
352.6741
51
358.5317
0
ARC
8
1
62
7
10
2.596503
20
0.9850539
40
0.1553918
50
7.34028
51
12.94821
0
LINE
8
1
62
7
10
2.745767
20
0.9658641
11
2.750401
21
0.9652828
0
LINE
8
1
62
7
10
2.746954
20
0.9815139
11
2.751623
21
0.9813899
0
LINE
8
1
62
7
10
2.745764
20
1.004267
11
2.750395
21
1.004878
0
ARC
8
1
62
7
10
2.746333
20
0.9927329
40
0.01154807
50
92.82345
51
272.8234
0
LINE
8
1
62
7
10
2.743166
20
1.018788
11
2.74772
21
1.019822
0
LINE
8
2
62
5
10
2.763726
20
1.0008
11
2.742629
21
0.9816254
0
ARC
8
1
62
7
10
2.596503
20
0.9850539
40
0.1553918
50
21.63615
51
27.3675
0
ARC
8
1
62
7
10
2.596503
20
0.9850539
40
0.2112193
50
30.70016
51
34.36434
0
LINE
8
1
62
7
10
2.752685
20
1.119541
11
2.756151
21
1.12267
0
LINE
8
1
62
7
10
2.766575
20
1.101479
11
2.770489
21
1.104026
0
ARC
8
1
62
7
10
2.759507
20
1.110613
40
0.01154807
50
127.7328
51
307.7328
0
LINE
8
1
62
7
10
2.773777
20
1.090188
11
2.777737
21
1.092664
0
LINE
8
1
62
7
10
2.784298
20
1.069978
11
2.788598
21
1.071802
0
ARC
8
1
62
7
10
2.778935
20
1.080205
40
0.01154807
50
117.6719
51
297.6719
0
LINE
8
1
62
7
10
2.736393
20
1.040542
11
2.740729
21
1.042278
0
LINE
8
2
62
1
10
2.739846
20
1.044966
11
2.751102
21
1.054447
0
CIRCLE
8
3
62
7
10
2.731037
20
1.236618
40
0.004213074
0
ARC
8
3
62
7
10
2.730982
20
1.236495
40
0.01417357
50
205.995
51
105.9142
0
ARC
8
3
62
7
10
2.733615
20
1.207427
40
0.01483664
50
23.06779
51
104.1407
0
ARC
8
3
62
7
10
2.215909
20
1.263504
40
0.01417357
50
55.69078
51
306.3421
0
ARC
8
3
62
7
10
2.199044
20
1.286611
40
0.01483664
50
231.5636
51
312.6365
0
ARC
8
3
62
7
10
2.199146
20
1.240112
40
0.01483664
50
46.60532
51
127.6782
0
LINE
8
1
62
7
10
2.282863
20
1.278003
11
2.202156
21
1.376862
0
ARC
8
1
62
7
10
2.235462
20
1.408518
40
0.04576553
50
25.43505
51
223.6076
0
POLYLINE
8
1
62
7
70
0
66
1
40
0
41
0
0
VERTEX
8
1
10
2.199267
20
1.435843
0
VERTEX
8
1
10
2.20281
20
1.451902
0
VERTEX
8
1
10
2.211364
20
1.451837
0
VERTEX
8
1
10
2.212296
20
1.44729
0
SEQEND
8
1
0
POLYLINE
8
1
62
7
70
0
66
1
40
0
41
0
0
VERTEX
8
1
10
2.198861
20
1.38174
0
VERTEX
8
1
10
2.202162
20
1.365631
0
VERTEX
8
1
10
2.210716
20
1.365566
0
VERTEX
8
1
10
2.210777
20
1.365843
0
SEQEND
8
1
0
POLYLINE
8
5
62
7
70
0
66
1
40
0
41
0
0
VERTEX
8
5
10
1.996798
20
1.592966
0
VERTEX
8
5
10
1.992206
20
1.590544
0
VERTEX
8
5
10
2.018659
20
1.540399
0
VERTEX
8
5
10
2.02325
20
1.542821
0
SEQEND
8
5
0
POLYLINE
8
5
62
7
70
0
66
1
40
0
41
0
0
VERTEX
8
5
10
1.996794
20
1.592973
0
VERTEX
8
5
10
1.992203
20
1.59055
0
VERTEX
8
5
10
2.018655
20
1.540407
0
VERTEX
8
5
10
2.023247
20
1.542829
0
SEQEND
8
5
0
POLYLINE
8
5
62
7
70
1
66
1
40
0
41
0
0
VERTEX
8
5
10
2.036423
20
1.61501
0
VERTEX
8
5
10
2.056082
20
1.625381
0
VERTEX
8
5
10
2.082778
20
1.574779
0
VERTEX
8
5
10
2.063119
20
1.564408
0
SEQEND
8
5
0
POLYLINE
8
5
62
7
70
0
66
1
40
0
41
0
0
VERTEX
8
5
10
2.035225
20
1.614085
0
VERTEX
8
5
10
2.030634
20
1.611663
0
VERTEX
8
5
10
2.057086
20
1.561519
0
VERTEX
8
5
10
2.061678
20
1.56394
0
SEQEND
8
5
0
POLYLINE
8
5
62
7
70
1
66
1
40
0
41
0
0
VERTEX
8
5
10
2.036428
20
1.615003
0
VERTEX
8
5
10
2.056087
20
1.625374
0
VERTEX
8
5
10
2.082782
20
1.574771
0
VERTEX
8
5
10
2.063122
20
1.5644
0
SEQEND
8
5
0
POLYLINE
8
5
62
7
70
0
66
1
40
0
41
0
0
VERTEX
8
5
10
2.035229
20
1.614077
0
VERTEX
8
5
10
2.030638
20
1.611655
0
VERTEX
8
5
10
2.05709
20
1.561511
0
VERTEX
8
5
10
2.061681
20
1.563933
0
SEQEND
8
5
0
POLYLINE
8
5
62
7
70
1
66
1
40
0
41
0
0
VERTEX
8
5
10
1.997993
20
1.593899
0
VERTEX
8
5
10
2.017652
20
1.60427
0
VERTEX
8
5
10
2.044347
20
1.553667
0
VERTEX
8
5
10
2.024689
20
1.543296
0
SEQEND
8
5
0
POLYLINE
8
5
62
7
70
1
66
1
40
0
41
0
0
VERTEX
8
5
10
1.997997
20
1.593892
0
VERTEX
8
5
10
2.017656
20
1.604262
0
VERTEX
8
5
10
2.044351
20
1.553659
0
VERTEX
8
5
10
2.024692
20
1.543288
0
SEQEND
8
5
0
ARC
8
5
62
7
10
1.11019
20
1.101019
40
0.8914266
50
10.92297
51
49.52976
0
ARC
8
5
62
7
10
1.11019
20
1.101019
40
0.9363798
50
10.44105
51
49.41948
0
CIRCLE
8
3
62
7
10
2.077721
20
1.261883
40
0.004213074
0
ARC
8
3
62
7
10
2.094835
20
1.28503
40
0.01483664
50
231.5636
51
312.6365
0
ARC
8
3
62
7
10
2.095336
20
1.238844
40
0.01483664
50
48.60532
51
129.6782
0
ARC
8
3
62
7
10
2.025559
20
1.284279
40
0.01483664
50
228.602
51
309.6749
0
ARC
8
3
62
7
10
2.026057
20
1.238093
40
0.01483664
50
51.56025
51
132.6332
0
CIRCLE
8
3
62
7
10
2.008618
20
1.261001
40
0.004213074
0
CIRCLE
8
3
62
7
10
2.043169
20
1.261509
40
0.004213074
0
ARC
8
3
62
7
10
2.060282
20
1.284655
40
0.01483664
50
231.5636
51
312.6365
0
ARC
8
3
62
7
10
2.060783
20
1.238469
40
0.01483664
50
48.60532
51
129.6782
0
CIRCLE
8
3
62
7
10
1.974063
20
1.260762
40
0.004213074
0
ARC
8
3
62
7
10
1.991177
20
1.283908
40
0.01483664
50
231.5636
51
312.6365
0
ARC
8
3
62
7
10
1.991677
20
1.237722
40
0.01483664
50
48.60532
51
129.6782
0
ARC
8
3
62
7
10
1.922158
20
1.283408
40
0.01483664
50
228.602
51
309.6749
0
ARC
8
3
62
7
10
1.922655
20
1.237222
40
0.01483664
50
51.56025
51
132.6332
0
CIRCLE
8
3
62
7
10
1.905216
20
1.26013
40
0.004213074
0
CIRCLE
8
3
62
7
10
1.939768
20
1.260637
40
0.004213074
0
ARC
8
3
62
7
10
1.956882
20
1.283784
40
0.01483664
50
231.5636
51
312.6365
0
ARC
8
3
62
7
10
1.957382
20
1.237598
40
0.01483664
50
48.60532
51
129.6782
0
CIRCLE
8
3
62
7
10
1.870662
20
1.25989
40
0.004213074
0
ARC
8
3
62
7
10
1.887776
20
1.283036
40
0.01483664
50
231.5636
51
312.6365
0
ARC
8
3
62
7
10
1.888276
20
1.23685
40
0.01483664
50
48.60532
51
129.6782
0
ARC
8
3
62
7
10
1.8185
20
1.282287
40
0.01483664
50
228.602
51
309.6749
0
ARC
8
3
62
7
10
1.818998
20
1.236101
40
0.01483664
50
51.56025
51
132.6332
0
CIRCLE
8
3
62
7
10
1.801558
20
1.259008
40
0.004213074
0
CIRCLE
8
3
62
7
10
1.836109
20
1.259516
40
0.004213074
0
ARC
8
3
62
7
10
1.853223
20
1.282662
40
0.01483664
50
231.5636
51
312.6365
0
ARC
8
3
62
7
10
1.853724
20
1.236476
40
0.01483664
50
48.60532
51
129.6782
0
ARC
8
3
62
7
10
1.784118
20
1.281915
40
0.01483664
50
231.5636
51
312.6365
0
ARC
8
3
62
7
10
1.784618
20
1.235729
40
0.01483664
50
48.60532
51
129.6782
0
ARC
8
3
62
7
10
2.077723
20
1.261748
40
0.01417357
50
49.58665
51
311.6842
0
ARC
8
3
62
7
10
2.043171
20
1.261374
40
0.01417357
50
230.491
51
130.553
0
ARC
8
3
62
7
10
2.008618
20
1.261001
40
0.01417357
50
47.30077
51
313.5754
0
ARC
8
3
62
7
10
1.974065
20
1.260626
40
0.01417357
50
237.5346
51
132.7203
0
ARC
8
3
62
7
10
1.939769
20
1.260502
40
0.01417357
50
50.89926
51
308.5312
0
ARC
8
3
62
7
10
1.905216
20
1.26013
40
0.01417357
50
230.3229
51
125.7187
0
ARC
8
3
62
7
10
1.870664
20
1.259755
40
0.01417357
50
46.89249
51
307.8403
0
ARC
8
3
62
7
10
1.836112
20
1.259381
40
0.01417357
50
230.8758
51
128.7165
0
ARC
8
3
62
7
10
1.801558
20
1.259008
40
0.01417357
50
48.6412
51
310.1595
0
CIRCLE
8
3
62
7
10
1.766916
20
1.259271
40
0.004213074
0
ARC
8
3
62
7
10
1.71501
20
1.281917
40
0.01483664
50
228.602
51
309.6749
0
ARC
8
3
62
7
10
1.715508
20
1.235731
40
0.01483664
50
51.56025
51
132.6332
0
CIRCLE
8
3
62
7
10
1.698068
20
1.258639
40
0.004213074
0
CIRCLE
8
3
62
7
10
1.73262
20
1.259146
40
0.004213074
0
ARC
8
3
62
7
10
1.749735
20
1.282292
40
0.01483664
50
231.5636
51
312.6365
0
ARC
8
3
62
7
10
1.750235
20
1.236107
40
0.01483664
50
48.60532
51
129.6782
0
CIRCLE
8
3
62
7
10
1.663514
20
1.258399
40
0.004213074
0
ARC
8
3
62
7
10
1.680628
20
1.281546
40
0.01483664
50
231.5636
51
312.6365
0
ARC
8
3
62
7
10
1.681129
20
1.235359
40
0.01483664
50
48.60532
51
129.6782
0
ARC
8
3
62
7
10
1.611352
20
1.280795
40
0.01483664
50
228.602
51
309.6749
0
ARC
8
3
62
7
10
1.61185
20
1.234609
40
0.01483664
50
51.56025
51
132.6332
0
CIRCLE
8
3
62
7
10
1.594411
20
1.257517
40
0.004213074
0
CIRCLE
8
3
62
7
10
1.628962
20
1.258025
40
0.004213074
0
ARC
8
3
62
7
10
1.646076
20
1.281171
40
0.01483664
50
231.5636
51
312.6365
0
ARC
8
3
62
7
10
1.646576
20
1.234985
40
0.01483664
50
48.60532
51
129.6782
0
ARC
8
3
62
7
10
1.57697
20
1.280424
40
0.01483664
50
231.5636
51
312.6365
0
ARC
8
3
62
7
10
1.577471
20
1.234238
40
0.01483664
50
48.60532
51
129.6782
0
ARC
8
3
62
7
10
1.766918
20
1.259135
40
0.01417357
50
237.5346
51
132.7203
0
ARC
8
3
62
7
10
1.732622
20
1.259011
40
0.01417357
50
50.89926
51
308.5312
0
ARC
8
3
62
7
10
1.698068
20
1.258639
40
0.01417357
50
230.3229
51
125.7187
0
ARC
8
3
62
7
10
1.663516
20
1.258264
40
0.01417357
50
46.89249
51
307.8403
0
ARC
8
3
62
7
10
1.628964
20
1.25789
40
0.01417357
50
230.8758
51
128.7165
0
ARC
8
3
62
7
10
1.594411
20
1.257517
40
0.01417357
50
48.6412
51
310.1595
0
POLYLINE
8
1
62
7
70
0
66
1
40
0
41
0
0
VERTEX
8
1
10
2.167901
20
1.436078
0
VERTEX
8
1
10
2.171444
20
1.452137
0
VERTEX
8
1
10
2.179998
20
1.452073
0
VERTEX
8
1
10
2.183299
20
1.435963
0
SEQEND
8
1
0
LINE
8
1
62
7
10
2.151932
20
1.435957
11
2.167899
21
1.435837
0
LINE
8
1
62
7
10
2.183297
20
1.435722
11
2.199265
21
1.435602
0
POLYLINE
8
1
62
7
70
0
66
1
40
0
41
0
0
VERTEX
8
1
10
2.167495
20
1.381976
0
VERTEX
8
1
10
2.170796
20
1.365866
0
VERTEX
8
1
10
2.17935
20
1.365802
0
VERTEX
8
1
10
2.182893
20
1.38186
0
SEQEND
8
1
0
LINE
8
1
62
7
10
2.182894
20
1.382102
11
2.198863
21
1.381982
0
ARC
8
3
62
7
10
1.5419
20
1.279426
40
0.01483664
50
231.5636
51
312.6365
0
ARC
8
3
62
7
10
1.5424
20
1.23324
40
0.01483664
50
48.60532
51
129.6782
0
ARC
8
3
62
7
10
1.55934
20
1.256519
40
0.01417357
50
226.0037
51
129.8206
0
ARC
8
3
62
7
10
1.524788
20
1.256145
40
0.01417357
50
49.58665
51
311.6842
0
CIRCLE
8
3
62
7
10
1.55934
20
1.256519
40
0.004213074
0
POLYLINE
8
5
62
7
70
1
66
1
40
0
41
0
0
VERTEX
8
5
10
2.188379
20
1.181113
0
VERTEX
8
5
10
2.171759
20
1.179567
0
VERTEX
8
5
10
2.17269
20
1.155265
0
VERTEX
8
5
10
2.160227
20
1.15451
0
VERTEX
8
5
10
2.155328
20
1.220945
0
VERTEX
8
5
10
2.18338
20
1.224871
0
SEQEND
8
5
0
POLYLINE
8
5
62
7
70
0
66
1
40
0
41
0
0
VERTEX
8
5
10
2.091723
20
1.549841
0
VERTEX
8
5
10
2.088016
20
1.551207
0
VERTEX
8
5
10
2.061558
20
1.538496
0
VERTEX
8
5
10
2.087964
20
1.476363
0
VERTEX
8
5
10
2.091425
20
1.475769
0
SEQEND
8
5
0
POLYLINE
8
5
62
7
70
1
66
1
40
0
41
0
0
VERTEX
8
5
10
2.110976
20
1.510081
0
VERTEX
8
5
10
2.095646
20
1.503479
0
VERTEX
8
5
10
2.104035
20
1.480652
0
VERTEX
8
5
10
2.092414
20
1.476086
0
VERTEX
8
5
10
2.067243
20
1.537762
0
VERTEX
8
5
10
2.092711
20
1.550158
0
SEQEND
8
5
0
ARC
8
5
62
7
10
1.153499
20
1.101584
40
1.028951
50
2.345517
51
4.382301
0
POLYLINE
8
5
62
7
70
0
66
1
40
0
41
0
0
VERTEX
8
5
10
2.182341
20
1.224875
0
VERTEX
8
5
10
2.179238
20
1.227319
0
VERTEX
8
5
10
2.150148
20
1.223397
0
VERTEX
8
5
10
2.156081
20
1.156148
0
VERTEX
8
5
10
2.159188
20
1.154514
0
SEQEND
8
5
0
POLYLINE
8
5
62
7
70
0
66
1
40
0
41
0
0
VERTEX
8
5
10
2.102948
20
1.468246
0
VERTEX
8
5
10
2.098032
20
1.466578
0
VERTEX
8
5
10
2.116237
20
1.412887
0
VERTEX
8
5
10
2.121153
20
1.414553
0
SEQEND
8
5
0
POLYLINE
8
5
62
7
70
1
66
1
40
0
41
0
0
VERTEX
8
5
10
2.104279
20
1.46897
0
VERTEX
8
5
10
2.125329
20
1.476107
0
VERTEX
8
5
10
2.143699
20
1.421924
0
VERTEX
8
5
10
2.12265
20
1.414787
0
SEQEND
8
5
0
POLYLINE
8
5
62
7
70
0
66
1
40
0
41
0
0
VERTEX
8
5
10
2.162287
20
1.341729
0
VERTEX
8
5
10
2.160175
20
1.33839
0
VERTEX
8
5
10
2.131442
20
1.332389
0
VERTEX
8
5
10
2.114614
20
1.397768
0
VERTEX
8
5
10
2.116998
20
1.400344
0
SEQEND
8
5
0
POLYLINE
8
5
62
7
70
1
66
1
40
0
41
0
0
VERTEX
8
5
10
2.153387
20
1.385
0
VERTEX
8
5
10
2.137203
20
1.380917
0
VERTEX
8
5
10
2.129977
20
1.404138
0
VERTEX
8
5
10
2.117975
20
1.400695
0
VERTEX
8
5
10
2.135508
20
1.336428
0
VERTEX
8
5
10
2.163265
20
1.34208
0
SEQEND
8
5
0
ARC
8
5
62
7
10
1.153498
20
1.10164
40
1.028951
50
11.57314
51
13.1503
0
ARC
8
5
62
7
10
1.153498
20
1.10164
40
1.028951
50
7.042064
51
8.419514
0
ARC
8
5
62
7
10
1.151209
20
1.114926
40
1.028951
50
15.09439
51
17.13117
0
POLYLINE
8
5
62
7
70
0
66
1
40
0
41
0
0
VERTEX
8
5
10
2.048578
20
1.484033
0
VERTEX
8
5
10
2.045637
20
1.483036
0
VERTEX
8
5
10
2.084527
20
1.368333
0
VERTEX
8
5
10
2.088938
20
1.369829
0
SEQEND
8
5
0
POLYLINE
8
5
62
7
70
1
66
1
40
0
41
0
0
VERTEX
8
5
10
2.069165
20
1.491013
0
VERTEX
8
5
10
2.108055
20
1.37631
0
VERTEX
8
5
10
2.088938
20
1.369829
0
VERTEX
8
5
10
2.050049
20
1.484532
0
SEQEND
8
5
0
ARC
8
5
62
7
10
1.151209
20
1.114926
40
1.028951
50
20.36806
51
22.38744
0
ARC
8
5
62
7
10
1.151209
20
1.114926
40
1.028951
50
24.96993
51
26.24582
0
ARC
8
3
62
7
10
2.129217
20
1.285401
40
0.01483664
50
228.602
51
309.6749
0
ARC
8
3
62
7
10
2.129715
20
1.239215
40
0.01483664
50
51.56025
51
132.6332
0
CIRCLE
8
3
62
7
10
2.146827
20
1.26263
40
0.004213074
0
ARC
8
3
62
7
10
2.163941
20
1.285776
40
0.01483664
50
231.5636
51
312.6365
0
CIRCLE
8
3
62
7
10
2.18193
20
1.263465
40
0.004213074
0
ARC
8
3
62
7
10
2.164841
20
1.239899
40
0.01483664
50
50.60532
51
131.6782
0
ARC
8
3
62
7
10
2.181932
20
1.26333
40
0.01417357
50
232.3753
51
135.0597
0
ARC
8
3
62
7
10
2.146829
20
1.262495
40
0.01417357
50
51.33077
51
308.5211
0
ARC
8
3
62
7
10
2.112276
20
1.262123
40
0.01417357
50
226.0037
51
129.8206
0
CIRCLE
8
3
62
7
10
2.112276
20
1.262123
40
0.004213074
0
LINE
8
5
62
7
10
1.633363
20
1.270611
11
1.939496
21
1.419855
0
POLYLINE
8
1
62
7
70
0
66
1
40
0
41
0
0
VERTEX
8
1
10
2.137205
20
1.439353
0
VERTEX
8
1
10
2.140078
20
1.452373
0
VERTEX
8
1
10
2.148632
20
1.452308
0
VERTEX
8
1
10
2.151933
20
1.436198
0
SEQEND
8
1
0
LINE
8
1
62
7
10
2.154001
20
1.382319
11
2.167497
21
1.382218
0
CIRCLE
8
3
62
7
10
1.524785
20
1.25628
40
0.004213074
0
POLYLINE
8
5
62
7
70
0
66
1
40
0
41
0
0
VERTEX
8
5
10
2.105106
20
1.296539
0
VERTEX
8
5
10
2.099992
20
1.295646
0
VERTEX
8
5
10
2.104128
20
1.271965
0
SEQEND
8
5
0
LINE
8
5
62
7
10
2.105306
20
1.295018
11
2.108745
21
1.277382
0
POLYLINE
8
5
62
7
70
0
66
1
40
0
41
0
0
VERTEX
8
5
10
2.147999
20
1.305631
0
VERTEX
8
5
10
2.142885
20
1.304733
0
VERTEX
8
5
10
2.148054
20
1.275286
0
SEQEND
8
5
0
LINE
8
5
62
7
10
2.106166
20
1.29612
11
2.12852
21
1.299427
0
LINE
8
5
62
7
10
2.12938
20
1.298324
11
2.133679
21
1.274075
0
LINE
8
5
62
7
10
2.147435
20
1.30604
11
2.154314
21
1.274075
0
LINE
8
5
62
7
10
2.149155
20
1.304938
11
2.168071
21
1.309347
0
LINE
8
5
62
7
10
2.168071
20
1.309347
11
2.174949
21
1.275177
0
POLYLINE
8
5
62
7
70
0
66
1
40
0
41
0
0
VERTEX
8
5
10
2.108391
20
1.247559
0
VERTEX
8
5
10
2.109746
20
1.239797
0
VERTEX
8
5
10
2.114859
20
1.24069
0
SEQEND
8
5
0
POLYLINE
8
5
62
7
70
0
66
1
40
0
41
0
0
VERTEX
8
5
10
2.137149
20
1.250933
0
VERTEX
8
5
10
2.138269
20
1.244524
0
VERTEX
8
5
10
2.116373
20
1.2407
0
VERTEX
8
5
10
2.115178
20
1.247543
0
SEQEND
8
5
0
POLYLINE
8
5
62
7
70
0
66
1
40
0
41
0
0
VERTEX
8
5
10
2.108203
20
1.248628
0
VERTEX
8
5
10
2.109744
20
1.239806
0
VERTEX
8
5
10
2.114858
20
1.240698
0
SEQEND
8
5
0
LINE
8
5
62
7
10
2.157753
20
1.254234
11
2.158613
21
1.249825
0
POLYLINE
8
5
62
7
70
0
66
1
40
0
41
0
0
VERTEX
8
5
10
2.152686
20
1.248893
0
VERTEX
8
5
10
2.157799
20
1.24979
0
SEQEND
8
5
0
LINE
8
5
62
7
10
2.159473
20
1.249825
11
2.17151
21
1.25203
0
POLYLINE
8
5
62
7
70
0
66
1
40
0
41
0
0
VERTEX
8
5
10
2.105105
20
1.296547
0
VERTEX
8
5
10
2.09999
20
1.295654
0
VERTEX
8
5
10
2.104153
20
1.271819
0
SEQEND
8
5
0
ARC
8
5
62
7
10
1.144978
20
1.126821
40
1.028951
50
32.92948
51
34.96626
0
POLYLINE
8
5
62
7
70
0
66
1
40
0
41
0
0
VERTEX
8
5
10
1.886172
20
1.753035
0
VERTEX
8
5
10
1.883678
20
1.751185
0
VERTEX
8
5
10
1.955829
20
1.653905
0
VERTEX
8
5
10
1.959571
20
1.65668
0
SEQEND
8
5
0
POLYLINE
8
5
62
7
70
1
66
1
40
0
41
0
0
VERTEX
8
5
10
1.903631
20
1.765985
0
VERTEX
8
5
10
1.975783
20
1.668705
0
VERTEX
8
5
10
1.959571
20
1.65668
0
VERTEX
8
5
10
1.887419
20
1.75396
0
SEQEND
8
5
0
POLYLINE
8
5
62
7
70
1
66
1
40
0
41
0
0
VERTEX
8
5
10
2.016276
20
1.690862
0
VERTEX
8
5
10
2.00212
20
1.682018
0
VERTEX
8
5
10
1.988129
20
1.70191
0
VERTEX
8
5
10
1.977759
20
1.694956
0
VERTEX
8
5
10
2.014133
20
1.639147
0
VERTEX
8
5
10
2.038823
20
1.653029
0
SEQEND
8
5
0
POLYLINE
8
5
62
7
70
0
66
1
40
0
41
0
0
VERTEX
8
5
10
2.038
20
1.652396
0
VERTEX
8
5
10
2.037012
20
1.648571
0
VERTEX
8
5
10
2.011499
20
1.634057
0
VERTEX
8
5
10
1.975454
20
1.69114
0
VERTEX
8
5
10
1.976936
20
1.694324
0
SEQEND
8
5
0
ARC
8
5
62
7
10
1.151209
20
1.114926
40
1.028951
50
29.42556
51
31.01111
0
ARC
8
5
62
7
10
1.144978
20
1.126821
40
1.028951
50
38.20314
51
40.22253
0
POLYLINE
8
5
62
7
70
0
66
1
40
0
41
0
0
VERTEX
8
5
10
1.907087
20
1.828895
0
VERTEX
8
5
10
1.903141
20
1.829059
0
VERTEX
8
5
10
1.881848
20
1.808855
0
VERTEX
8
5
10
1.926015
20
1.757797
0
VERTEX
8
5
10
1.929491
20
1.758291
0
SEQEND
8
5
0
POLYLINE
8
5
62
7
70
1
66
1
40
0
41
0
0
VERTEX
8
5
10
1.937594
20
1.796942
0
VERTEX
8
5
10
1.925022
20
1.785962
0
VERTEX
8
5
10
1.939999
20
1.766801
0
VERTEX
8
5
10
1.930335
20
1.758895
0
VERTEX
8
5
10
1.887483
20
1.809899
0
VERTEX
8
5
10
1.907931
20
1.829498
0
SEQEND
8
5
0
POLYLINE
8
5
62
7
70
0
66
1
40
0
41
0
0
VERTEX
8
5
10
1.942765
20
1.754658
0
VERTEX
8
5
10
1.938595
20
1.751565
0
VERTEX
8
5
10
1.972369
20
1.70603
0
VERTEX
8
5
10
1.976539
20
1.709122
0
SEQEND
8
5
0
POLYLINE
8
5
62
7
70
1
66
1
40
0
41
0
0
VERTEX
8
5
10
1.94381
20
1.755756
0
VERTEX
8
5
10
1.961661
20
1.768996
0
VERTEX
8
5
10
1.995745
20
1.723043
0
VERTEX
8
5
10
1.977892
20
1.709802
0
SEQEND
8
5
0
POLYLINE
8
5
62
7
70
1
66
1
40
0
41
0
0
VERTEX
8
5
10
1.872691
20
1.836334
0
VERTEX
8
5
10
1.888361
20
1.852098
0
VERTEX
8
5
10
1.847782
20
1.892431
0
VERTEX
8
5
10
1.832113
20
1.876667
0
SEQEND
8
5
0
POLYLINE
8
5
62
7
70
0
66
1
40
0
41
0
0
VERTEX
8
5
10
1.871455
20
1.835458
0
VERTEX
8
5
10
1.867796
20
1.831776
0
VERTEX
8
5
10
1.827586
20
1.871743
0
VERTEX
8
5
10
1.831245
20
1.875425
0
SEQEND
8
5
0
POLYLINE
8
5
62
7
70
1
66
1
40
0
41
0
0
VERTEX
8
5
10
1.872686
20
1.83634
0
VERTEX
8
5
10
1.888354
20
1.852104
0
VERTEX
8
5
10
1.847776
20
1.892436
0
VERTEX
8
5
10
1.832107
20
1.876673
0
SEQEND
8
5
0
POLYLINE
8
5
62
7
70
0
66
1
40
0
41
0
0
VERTEX
8
5
10
1.871449
20
1.835464
0
VERTEX
8
5
10
1.867789
20
1.831783
0
VERTEX
8
5
10
1.82758
20
1.871749
0
VERTEX
8
5
10
1.831239
20
1.875431
0
SEQEND
8
5
0
POLYLINE
8
5
62
7
70
1
66
1
40
0
41
0
0
VERTEX
8
5
10
1.841259
20
1.805762
0
VERTEX
8
5
10
1.856928
20
1.821526
0
VERTEX
8
5
10
1.816351
20
1.861859
0
VERTEX
8
5
10
1.800682
20
1.846094
0
SEQEND
8
5
0
POLYLINE
8
5
62
7
70
0
66
1
40
0
41
0
0
VERTEX
8
5
10
1.840023
20
1.804886
0
VERTEX
8
5
10
1.836363
20
1.801204
0
VERTEX
8
5
10
1.796154
20
1.841171
0
VERTEX
8
5
10
1.799814
20
1.844853
0
SEQEND
8
5
0
POLYLINE
8
5
62
7
70
1
66
1
40
0
41
0
0
VERTEX
8
5
10
1.841253
20
1.805768
0
VERTEX
8
5
10
1.856922
20
1.821532
0
VERTEX
8
5
10
1.816344
20
1.861864
0
VERTEX
8
5
10
1.800675
20
1.8461
0
SEQEND
8
5
0
POLYLINE
8
5
62
7
70
0
66
1
40
0
41
0
0
VERTEX
8
5
10
1.840017
20
1.804892
0
VERTEX
8
5
10
1.836357
20
1.80121
0
VERTEX
8
5
10
1.796148
20
1.841177
0
VERTEX
8
5
10
1.799806
20
1.844859
0
SEQEND
8
5
0
ARC
8
5
62
7
10
1.13549
20
1.136173
40
1.028951
50
41.97612
51
43.56167
0
ARC
8
5
62
7
10
1.13549
20
1.136173
40
1.028951
50
46.74141
51
48.0173
0
POLYLINE
8
5
62
7
70
0
66
1
40
0
41
0
0
VERTEX
8
5
10
1.826554
20
1.908281
0
VERTEX
8
5
10
1.826775
20
1.904337
0
VERTEX
8
5
10
1.806879
20
1.882755
0
VERTEX
8
5
10
1.785899
20
1.900384
0
SEQEND
8
5
0
LINE
8
4
62
7
10
1.825678
20
1.908491
11
1.807879
21
1.88841
0
LINE
8
4
62
7
10
1.807879
20
1.88841
11
1.787944
21
1.90484
0
LINE
8
4
62
7
10
1.82639
20
1.907578
11
1.805743
21
1.927658
0
POLYLINE
8
2
62
5
70
0
66
1
40
0
41
0
0
VERTEX
8
2
10
1.545354
20
1.754449
0
VERTEX
8
2
10
1.5156
20
1.778359
0
VERTEX
8
2
10
1.505904
20
1.812386
0
SEQEND
8
2
0
POLYLINE
8
2
62
5
70
0
66
1
40
0
41
0
0
VERTEX
8
2
10
1.564537
20
1.785069
0
VERTEX
8
2
10
1.656861
20
1.909204
0
VERTEX
8
2
10
1.629779
20
1.929594
0
VERTEX
8
2
10
1.538896
20
1.80643
0
SEQEND
8
2
0
POLYLINE
8
2
62
5
70
0
66
1
40
0
41
0
0
VERTEX
8
2
10
1.589146
20
1.811992
0
VERTEX
8
2
10
1.585998
20
1.814415
0
SEQEND
8
2
0
POLYLINE
8
2
62
5
70
0
66
1
40
0
41
0
0
VERTEX
8
2
10
1.559572
20
1.834756
0
VERTEX
8
2
10
1.557308
20
1.836499
0
VERTEX
8
2
10
1.52195
20
1.835137
0
SEQEND
8
2
0
CIRCLE
8
2
62
5
10
1.5557
20
1.871604
40
0.02445028
0
LINE
8
2
62
5
10
1.520893
20
1.833947
11
1.506112
21
1.81282
0
ARC
8
2
62
5
10
1.5208
20
1.818627
40
0.01663183
50
88.21455
51
199.219
0
LINE
8
2
62
5
10
1.527842
20
1.83456
11
1.508473
21
1.806279
0
POLYLINE
8
2
62
5
70
0
66
1
40
0
41
0
0
VERTEX
8
2
10
1.645943
20
1.9171
0
VERTEX
8
2
10
1.635751
20
1.903125
0
VERTEX
8
2
10
1.631521
20
1.907392
0
VERTEX
8
2
10
1.641287
20
1.920064
0
SEQEND
8
2
0
LINE
8
2
62
5
10
1.635034
20
1.880284
11
1.607951
21
1.900674
0
POLYLINE
8
2
62
5
70
0
66
1
40
0
41
0
0
VERTEX
8
2
10
1.617026
20
1.856682
0
VERTEX
8
2
10
1.63553
20
1.84317
0
VERTEX
8
2
10
1.615603
20
1.814471
0
VERTEX
8
2
10
1.597099
20
1.827983
0
SEQEND
8
2
0
POLYLINE
8
2
62
5
70
0
66
1
40
0
41
0
0
VERTEX
8
2
10
1.634971
20
1.842142
0
VERTEX
8
2
10
1.642314
20
1.852939
0
VERTEX
8
2
10
1.62414
20
1.866079
0
SEQEND
8
2
0
ARC
8
5
62
7
10
1.11019
20
1.101019
40
0.8914266
50
53.2131
51
54.593
0
ARC
8
5
62
7
10
1.11019
20
1.101019
40
0.9363798
50
53.15543
51
55.8924
0
POLYLINE
8
2
62
5
70
0
66
1
40
0
41
0
0
VERTEX
8
2
10
1.591068
20
1.8762
0
VERTEX
8
2
10
1.576794
20
1.884732
0
SEQEND
8
2
0
POLYLINE
8
2
62
1
70
0
66
1
40
0
41
0
0
VERTEX
8
2
10
1.621239
20
1.787167
0
VERTEX
8
2
10
1.589267
20
1.81203
0
VERTEX
8
2
10
1.545354
20
1.754449
0
VERTEX
8
2
10
1.576796
20
1.730145
0
SEQEND
8
2
0
ARC
8
2
62
1
10
1.582584
20
1.771776
40
0.04182593
50
261.6067
51
21.18853
0
LINE
8
2
62
5
10
2.353431
20
1.469204
11
2.277915
21
1.59173
0
ARC
8
3
62
7
10
2.543567
20
1.289898
40
0.01483664
50
228.602
51
309.6749
0
ARC
8
3
62
7
10
2.544065
20
1.243712
40
0.01483664
50
51.56025
51
132.6332
0
CIRCLE
8
3
62
7
10
2.526626
20
1.266619
40
0.004213074
0
CIRCLE
8
3
62
7
10
2.561177
20
1.267127
40
0.004213074
0
CIRCLE
8
3
62
7
10
2.492072
20
1.266379
40
0.004213074
0
ARC
8
3
62
7
10
2.509186
20
1.289526
40
0.01483664
50
231.5636
51
312.6365
0
ARC
8
3
62
7
10
2.509686
20
1.24334
40
0.01483664
50
48.60532
51
129.6782
0
ARC
8
3
62
7
10
2.440407
20
1.24259
40
0.01483664
50
51.56025
51
132.6332
0
ARC
8
3
62
7
10
2.475134
20
1.242965
40
0.01483664
50
48.60532
51
129.6782
0
ARC
8
3
62
7
10
2.336509
20
1.287904
40
0.01483664
50
228.602
51
309.6749
0
ARC
8
3
62
7
10
2.337006
20
1.241718
40
0.01483664
50
51.56025
51
132.6332
0
CIRCLE
8
3
62
7
10
2.319567
20
1.264626
40
0.004213074
0
CIRCLE
8
3
62
7
10
2.354119
20
1.265134
40
0.004213074
0
ARC
8
3
62
7
10
2.371232
20
1.28828
40
0.01483664
50
231.5636
51
312.6365
0
CIRCLE
8
3
62
7
10
2.285013
20
1.264387
40
0.004213074
0
ARC
8
3
62
7
10
2.302127
20
1.287533
40
0.01483664
50
231.5636
51
312.6365
0
ARC
8
3
62
7
10
2.302627
20
1.241347
40
0.01483664
50
48.60532
51
129.6782
0
ARC
8
3
62
7
10
2.561179
20
1.266992
40
0.01417357
50
50.84461
51
310.7637
0
ARC
8
3
62
7
10
2.526626
20
1.266619
40
0.01417357
50
230.1984
51
128.9021
0
ARC
8
3
62
7
10
2.492074
20
1.266245
40
0.01417357
50
48.53832
51
308.4622
0
ARC
8
3
62
7
10
2.35412
20
1.264999
40
0.01417357
50
54.15279
51
308.7507
0
ARC
8
3
62
7
10
2.319567
20
1.264626
40
0.01417357
50
230.4992
51
129.0972
0
ARC
8
3
62
7
10
2.285015
20
1.264252
40
0.01417357
50
50.72736
51
311.0208
0
ARC
8
3
62
7
10
2.23285
20
1.286783
40
0.01483664
50
228.602
51
309.6749
0
ARC
8
3
62
7
10
2.233348
20
1.240597
40
0.01483664
50
51.56025
51
132.6332
0
CIRCLE
8
3
62
7
10
2.215909
20
1.263504
40
0.004213074
0
CIRCLE
8
3
62
7
10
2.25046
20
1.264012
40
0.004213074
0
ARC
8
3
62
7
10
2.267574
20
1.287158
40
0.01483664
50
231.5636
51
312.6365
0
ARC
8
3
62
7
10
2.268075
20
1.240972
40
0.01483664
50
48.60532
51
129.6782
0
ARC
8
3
62
7
10
2.250462
20
1.263877
40
0.01417357
50
230.6329
51
131.351
0
ARC
8
3
62
7
10
2.578291
20
1.290273
40
0.01483664
50
231.5636
51
312.6365
0
ARC
8
3
62
7
10
2.578791
20
1.244087
40
0.01483664
50
48.60532
51
129.6782
0
CIRCLE
8
3
62
7
10
2.595821
20
1.267543
40
0.004213074
0
ARC
8
1
62
7
10
2.597608
20
0.9885985
40
0.2112193
50
136.6341
51
139.2903
0
ARC
8
1
62
7
10
2.596502
20
0.9850539
40
0.1704106
50
63.84372
51
116.056
0
ARC
8
1
62
7
10
2.596502
20
0.9850539
40
0.1553918
50
65.26125
51
71.23937
0
ARC
8
1
62
7
10
2.596502
20
0.9850539
40
0.1553918
50
108.7631
51
114.6206
0
ARC
8
1
62
7
10
2.596502
20
0.9850539
40
0.1553918
50
94.34658
51
99.95451
0
ARC
8
1
62
7
10
2.596502
20
0.9850539
40
0.1553918
50
79.92729
51
85.65865
0
ARC
8
1
62
7
10
2.596502
20
0.9850539
40
0.2112193
50
113.3505
51
116.0067
0
ARC
8
1
62
7
10
2.596502
20
0.9850539
40
0.2112193
50
103.3474
51
106.9538
0
ARC
8
1
62
7
10
2.596502
20
0.9850539
40
0.2112193
50
93.16853
51
96.89287
0
ARC
8
1
62
7
10
2.596502
20
0.9850539
40
0.2112193
50
82.99131
51
86.80164
0
ARC
8
1
62
7
10
2.596502
20
0.9850539
40
0.2112193
50
72.93044
51
76.59463
0
ARC
8
1
62
7
10
2.596502
20
0.9850539
40
0.2112193
50
63.90603
51
66.53373
0
LINE
8
1
62
7
10
2.51491
20
1.174322
11
2.512961
21
1.178566
0
LINE
8
1
62
7
10
2.536299
20
1.182171
11
2.53504
21
1.186668
0
ARC
8
1
62
7
10
2.52547
20
1.17816
40
0.01154807
50
200.3222
51
20.32214
0
LINE
8
1
62
7
10
2.549228
20
1.185665
11
2.548051
21
1.190184
0
LINE
8
1
62
7
10
2.57166
20
1.189657
11
2.571206
21
1.194305
0
ARC
8
1
62
7
10
2.560297
20
1.1876
40
0.01154807
50
190.2613
51
10.26126
0
LINE
8
1
62
7
10
2.678477
20
1.174156
11
2.680434
21
1.178396
0
LINE
8
1
62
7
10
2.657103
20
1.182049
11
2.658371
21
1.186544
0
ARC
8
1
62
7
10
2.667925
20
1.178016
40
0.01154807
50
159.562
51
339.562
0
LINE
8
1
62
7
10
2.548395
20
1.127651
11
2.546888
21
1.132072
0
LINE
8
1
62
7
10
2.570473
20
1.133279
11
2.569679
21
1.137882
0
LINE
8
1
62
7
10
2.644903
20
1.127551
11
2.646419
21
1.131969
0
LINE
8
1
62
7
10
2.622837
20
1.133225
11
2.62364
21
1.137826
0
LINE
8
1
62
7
10
2.644181
20
1.185569
11
2.645368
21
1.190086
0
LINE
8
1
62
7
10
2.621757
20
1.189606
11
2.622221
21
1.194254
0
ARC
8
1
62
7
10
2.633116
20
1.187526
40
0.01154807
50
169.6229
51
349.6229
0
LINE
8
1
62
7
10
2.58511
20
1.135116
11
2.584742
21
1.139771
0
LINE
8
1
62
7
10
2.607894
20
1.135116
11
2.608262
21
1.139771
0
LINE
8
1
62
7
10
2.58511
20
1.190844
11
2.584742
21
1.1955
0
LINE
8
1
62
7
10
2.607894
20
1.190844
11
2.608262
21
1.1955
0
ARC
8
1
62
7
10
2.596346
20
1.19081
40
0.01154807
50
180.1701
51
0.1700665
0
ARC
8
1
62
7
10
2.428345
20
1.135365
40
0.009784705
50
43.4191
51
142.4658
0
ARC
8
1
62
7
10
2.596502
20
0.9850539
40
0.2353632
50
66.24669
51
113.7533
0
ARC
8
1
62
7
10
2.505639
20
1.191524
40
0.009784705
50
101.0347
51
216.7898
0
ARC
8
1
62
7
10
2.687365
20
1.191524
40
0.009784705
50
323.2102
51
78.96531
0
LINE
8
1
62
7
10
2.421193
20
1.206659
11
2.418144
21
1.21019
0
LINE
8
1
62
7
10
2.439845
20
1.220281
11
2.437408
21
1.224265
0
ARC
8
1
62
7
10
2.430519
20
1.213469
40
0.01154807
50
216.1432
51
36.14323
0
ARC
8
1
62
7
10
2.596502
20
0.9850539
40
0.2875367
50
128.4085
51
130.7504
0
LINE
8
1
62
7
10
2.395031
20
1.183173
11
2.391566
21
1.186298
0
LINE
8
1
62
7
10
2.411846
20
1.199005
11
2.408933
21
1.202656
0
ARC
8
1
62
7
10
2.403439
20
1.19109
40
0.01154807
50
223.2769
51
43.27687
0
ARC
8
1
62
7
10
2.596502
20
0.9850539
40
0.2875367
50
135.5331
51
137.8749
0
ARC
8
1
62
7
10
2.596502
20
0.9850539
40
0.2875367
50
142.6501
51
144.992
0
LINE
8
1
62
7
10
2.364949
20
1.146995
11
2.361245
21
1.149832
0
LINE
8
1
62
7
10
2.35245
20
1.127574
11
2.34833
21
1.129772
0
ARC
8
1
62
7
10
2.3587
20
1.137285
40
0.01154807
50
237.236
51
57.236
0
LINE
8
1
62
7
10
2.372
20
1.156637
11
2.368174
21
1.159308
0
LINE
8
1
62
7
10
2.386721
20
1.174435
11
2.383377
21
1.177695
0
ARC
8
1
62
7
10
2.37936
20
1.165535
40
0.01154807
50
230.4061
51
50.40608
0
ARC
8
1
62
7
10
2.596502
20
0.9850541
40
0.2875367
50
120.863
51
123.2049
0
LINE
8
1
62
7
10
2.472047
20
1.238732
11
2.470175
21
1.243006
0
LINE
8
1
62
7
10
2.451718
20
1.227769
11
2.449173
21
1.231686
0
ARC
8
1
62
7
10
2.461883
20
1.233251
40
0.01154807
50
208.3365
51
28.3365
0
ARC
8
1
62
7
10
2.596502
20
0.9850541
40
0.2875367
50
113.7294
51
116.0712
0
LINE
8
1
62
7
10
2.504514
20
1.252224
11
2.503186
21
1.256697
0
LINE
8
1
62
7
10
2.48298
20
1.243871
11
2.480941
21
1.248072
0
ARC
8
1
62
7
10
2.493747
20
1.248047
40
0.01154807
50
201.2029
51
21.20286
0
CIRCLE
8
1
62
7
10
2.235462
20
1.408518
40
0.02099883
0
LINE
8
1
62
7
10
2.351119
20
1.378599
11
2.351539
21
1.434458
0
LINE
8
1
62
7
10
2.337846
20
1.434561
11
2.34583
21
1.434501
0
LINE
8
1
62
7
10
2.304199
20
1.434813
11
2.322448
21
1.434676
0
LINE
8
1
62
7
10
2.337443
20
1.380941
11
2.345427
21
1.380881
0
POLYLINE
8
1
62
7
70
0
66
1
40
0
41
0
0
VERTEX
8
1
10
2.351128
20
1.380597
0
VERTEX
8
1
10
2.351018
20
1.365975
0
VERTEX
8
1
10
2.348167
20
1.365996
0
VERTEX
8
1
10
2.345425
20
1.38064
0
SEQEND
8
1
0
LINE
8
1
62
7
10
2.273973
20
1.43504
11
2.2888
21
1.434929
0
POLYLINE
8
1
62
7
70
0
66
1
40
0
41
0
0
VERTEX
8
1
10
2.288802
20
1.43517
0
VERTEX
8
1
10
2.292345
20
1.451229
0
VERTEX
8
1
10
2.300899
20
1.451165
0
VERTEX
8
1
10
2.3042
20
1.435055
0
SEQEND
8
1
0
POLYLINE
8
1
62
7
70
0
66
1
40
0
41
0
0
VERTEX
8
1
10
2.322449
20
1.434918
0
VERTEX
8
1
10
2.325992
20
1.450976
0
VERTEX
8
1
10
2.334547
20
1.450912
0
VERTEX
8
1
10
2.337848
20
1.434802
0
SEQEND
8
1
0
ARC
8
3
62
7
10
2.59582
20
1.267408
40
0.01417357
50
230.5786
51
128.0218
0
ARC
8
1
62
7
10
2.527181
20
1.258767
40
0.01154807
50
190.8332
51
354.0736
0
ARC
8
3
62
7
10
2.613285
20
1.29071
40
0.01483664
50
228.602
51
309.6749
0
ARC
8
3
62
7
10
2.613783
20
1.244524
40
0.01483664
50
51.56025
51
132.6332
0
CIRCLE
8
3
62
7
10
2.631781
20
1.268144
40
0.004213074
0
ARC
8
3
62
7
10
2.631755
20
1.268011
40
0.01417357
50
38.84461
51
298.7638
0
ARC
8
3
62
7
10
2.653333
20
1.287226
40
0.01483664
50
219.5636
51
300.6365
0
ARC
8
3
62
7
10
2.64422
20
1.241945
40
0.01483664
50
36.60532
51
117.6782
0
CIRCLE
8
3
62
7
10
2.665754
20
1.261348
40
0.004213074
0
ARC
8
3
62
7
10
2.665725
20
1.261216
40
0.01417357
50
218.5786
51
116.0218
0
ARC
8
3
62
7
10
2.724446
20
1.264639
40
0.01483664
50
204.1222
51
285.1952
0
ARC
8
3
62
7
10
2.705761
20
1.222399
40
0.01483664
50
27.08053
51
108.1535
0
CIRCLE
8
3
62
7
10
2.699369
20
1.250671
40
0.004213074
0
ARC
8
3
62
7
10
2.699317
20
1.250547
40
0.01417357
50
28.73695
51
286.1802
0
ARC
8
3
62
7
10
2.689663
20
1.277731
40
0.01483664
50
209.4643
51
290.5372
0
ARC
8
3
62
7
10
2.675911
20
1.233939
40
0.01483664
50
26.50603
51
107.5789
0
LINE
8
1
62
7
10
2.465535
20
1.221468
11
2.434399
21
1.255513
0
LINE
8
2
62
1
10
2.588489
20
1.183706
11
2.577175
21
1.218527
0
LINE
8
2
62
1
10
2.606177
20
1.129267
11
2.597732
21
1.155259
0
POLYLINE
8
1
62
7
70
0
66
1
40
0
41
0
0
VERTEX
8
1
10
2.333899
20
1.364641
0
VERTEX
8
1
10
2.333899
20
1.364641
0
VERTEX
8
1
10
2.337441
20
1.3807
0
SEQEND
8
1
0
POLYLINE
8
1
62
7
70
0
66
1
40
0
41
0
0
VERTEX
8
1
10
2.26087
20
1.445791
0
VERTEX
8
1
10
2.26212
20
1.451456
0
VERTEX
8
1
10
2.270674
20
1.451392
0
VERTEX
8
1
10
2.273975
20
1.435281
0
SEQEND
8
1
0
POLYLINE
8
1
62
7
70
0
66
1
40
0
41
0
0
VERTEX
8
1
10
2.322043
20
1.380815
0
VERTEX
8
1
10
2.322751
20
1.377361
0
SEQEND
8
1
0
LINE
8
1
62
7
10
2.319684
20
1.381074
11
2.322045
21
1.381057
0
POLYLINE
8
2
62
5
70
0
66
1
40
0
41
0
0
VERTEX
8
2
10
2.4454
20
1.34229
0
VERTEX
8
2
10
2.430084
20
1.391374
0
VERTEX
8
2
10
2.48624
20
1.407736
0
VERTEX
8
2
10
2.499002
20
1.361923
0
SEQEND
8
2
0
LINE
8
2
62
1
10
2.55694
20
1.280803
11
2.551781
21
1.29668
0
LINE
8
2
62
1
10
2.532555
20
1.355854
11
2.524039
21
1.382063
0
LINE
8
2
62
1
10
2.430529
20
1.331555
11
2.422561
21
1.356076
0
LINE
8
1
62
7
10
2.382193
20
1.153568
11
2.354998
21
1.187636
0
ARC
8
3
62
7
10
2.388416
20
1.265123
40
0.01417357
50
71.08727
51
130.7054
0
ARC
8
3
62
7
10
2.422968
20
1.265497
40
0.01417357
50
285.4445
51
306.1649
0
LINE
8
1
62
7
10
2.402193
20
1.290805
11
2.276749
21
1.428719
0
ARC
8
3
62
7
10
2.457521
20
1.26587
40
0.01417357
50
231.7477
51
40.59784
0
LINE
8
1
62
7
10
2.34067
20
1.205585
11
2.3004
21
1.256034
0
ARC
8
3
62
7
10
2.371606
20
1.241814
40
0.01483664
50
70.05388
51
129.6782
0
ARC
8
3
62
7
10
2.474633
20
1.289151
40
0.01483664
50
250.9184
51
312.6365
0
ARC
8
3
62
7
10
2.457519
20
1.266005
40
0.004213074
50
155.7418
51
51.43015
0
LINE
8
2
62
1
10
2.465996
20
1.2224
11
2.456111
21
1.252822
0
POLYLINE
8
2
62
5
70
0
66
1
40
0
41
0
0
VERTEX
8
2
10
2.428628
20
1.389969
0
VERTEX
8
2
10
2.403104
20
1.383424
0
VERTEX
8
2
10
2.413314
20
1.353974
0
VERTEX
8
2
10
2.430116
20
1.35861
0
VERTEX
8
2
10
2.441391
20
1.353974
0
SEQEND
8
2
0
POLYLINE
8
2
62
5
70
0
66
1
40
0
41
0
0
VERTEX
8
2
10
2.48624
20
1.407736
0
VERTEX
8
2
10
2.521974
20
1.417553
0
VERTEX
8
2
10
2.532184
20
1.384829
0
VERTEX
8
2
10
2.513997
20
1.379649
0
VERTEX
8
2
10
2.499002
20
1.365196
0
SEQEND
8
2
0
POLYLINE
8
2
62
5
70
0
66
1
40
0
41
0
0
VERTEX
8
2
10
2.403733
20
1.38134
0
VERTEX
8
2
10
2.372734
20
1.477184
0
VERTEX
8
2
10
2.363617
20
1.474846
0
VERTEX
8
2
10
2.403733
20
1.35095
0
VERTEX
8
2
10
2.41285
20
1.353288
0
SEQEND
8
2
0
POLYLINE
8
1
62
7
70
0
66
1
40
0
41
0
0
VERTEX
8
1
10
2.351535
20
1.434699
0
VERTEX
8
1
10
2.351556
20
1.437525
0
SEQEND
8
1
0
POLYLINE
8
1
62
7
70
0
66
1
40
0
41
0
0
VERTEX
8
1
10
2.348096
20
1.445906
0
VERTEX
8
1
10
2.345831
20
1.434742
0
SEQEND
8
1
0
POLYLINE
8
2
62
5
70
0
66
1
40
0
41
0
0
VERTEX
8
2
10
2.363617
20
1.472509
0
VERTEX
8
2
10
2.341736
20
1.465496
0
VERTEX
8
2
10
2.350853
20
1.437444
0
VERTEX
8
2
10
2.373762
20
1.444222
0
SEQEND
8
2
0
LINE
8
2
62
5
10
2.411027
20
1.301859
11
2.362808
21
1.441188
0
ARC
8
1
62
7
10
2.767711
20
1.131932
40
0.009784705
50
27.90733
51
143.6625
0
ARC
8
3
62
7
10
2.757883
20
1.246386
40
0.01483664
50
200.1095
51
281.1824
0
CIRCLE
8
3
62
7
10
2.760923
20
1.218185
40
0.004213074
0
ARC
8
3
62
7
10
2.760838
20
1.21808
40
0.01417357
50
10.75404
51
270.6732
0
ARC
8
3
62
7
10
2.788922
20
1.224871
40
0.01483664
50
191.473
51
272.5459
0
ARC
8
3
62
7
10
2.759561
20
1.189216
40
0.01483664
50
8.514739
51
89.58766
0
POLYLINE
8
5
62
7
70
1
66
1
40
0
41
0
0
VERTEX
8
5
10
1.30038
20
2.14309
0
VERTEX
8
5
10
1.303908
20
2.165034
0
VERTEX
8
5
10
1.24742
20
2.174114
0
VERTEX
8
5
10
1.243892
20
2.152169
0
SEQEND
8
5
0
POLYLINE
8
5
62
7
70
0
66
1
40
0
41
0
0
VERTEX
8
5
10
1.291412
20
2.098639
0
VERTEX
8
5
10
1.290592
20
2.093512
0
VERTEX
8
5
10
1.234609
20
2.102464
0
VERTEX
8
5
10
1.235428
20
2.107589
0
SEQEND
8
5
0
POLYLINE
8
5
62
7
70
1
66
1
40
0
41
0
0
VERTEX
8
5
10
1.291903
20
2.100071
0
VERTEX
8
5
10
1.295413
20
2.122019
0
VERTEX
8
5
10
1.238917
20
2.131052
0
VERTEX
8
5
10
1.235408
20
2.109104
0
SEQEND
8
5
0
POLYLINE
8
5
62
7
70
0
66
1
40
0
41
0
0
VERTEX
8
5
10
1.29142
20
2.098637
0
VERTEX
8
5
10
1.2906
20
2.093511
0
VERTEX
8
5
10
1.234618
20
2.102463
0
VERTEX
8
5
10
1.235437
20
2.107589
0
SEQEND
8
5
0
POLYLINE
8
5
62
7
70
1
66
1
40
0
41
0
0
VERTEX
8
5
10
1.291911
20
2.10007
0
VERTEX
8
5
10
1.295421
20
2.122017
0
VERTEX
8
5
10
1.238926
20
2.131051
0
VERTEX
8
5
10
1.235417
20
2.109103
0
SEQEND
8
5
0
POLYLINE
8
5
62
7
70
0
66
1
40
0
41
0
0
VERTEX
8
5
10
1.299887
20
2.141657
0
VERTEX
8
5
10
1.299063
20
2.136532
0
VERTEX
8
5
10
1.243088
20
2.145529
0
VERTEX
8
5
10
1.243912
20
2.150655
0
SEQEND
8
5
0
POLYLINE
8
5
62
7
70
0
66
1
40
0
41
0
0
VERTEX
8
5
10
0.8873833
20
2.157052
0
VERTEX
8
5
10
0.8906852
20
2.154884
0
VERTEX
8
5
10
0.8961991
20
2.126053
0
VERTEX
8
5
10
0.8305424
20
2.110338
0
VERTEX
8
5
10
0.8280071
20
2.112766
0
SEQEND
8
5
0
POLYLINE
8
5
62
7
70
1
66
1
40
0
41
0
0
VERTEX
8
5
10
0.8439673
20
2.148889
0
VERTEX
8
5
10
0.8477756
20
2.132638
0
VERTEX
8
5
10
0.8244346
20
2.125808
0
VERTEX
8
5
10
0.827674
20
2.11375
0
VERTEX
8
5
10
0.892229
20
2.130188
0
VERTEX
8
5
10
0.88705
20
2.158036
0
SEQEND
8
5
0
POLYLINE
8
5
62
7
70
1
66
1
40
0
41
0
0
VERTEX
8
5
10
0.9208225
20
2.143246
0
VERTEX
8
5
10
0.917313
20
2.165193
0
VERTEX
8
5
10
0.9738079
20
2.174227
0
VERTEX
8
5
10
0.9773177
20
2.152279
0
SEQEND
8
5
0
POLYLINE
8
5
62
7
70
1
66
1
40
0
41
0
0
VERTEX
8
5
10
0.9208306
20
2.143248
0
VERTEX
8
5
10
0.9173216
20
2.165195
0
VERTEX
8
5
10
0.9738165
20
2.174228
0
VERTEX
8
5
10
0.9773263
20
2.15228
0
SEQEND
8
5
0
ARC
8
5
62
7
10
1.11019
20
1.144331
40
1.028951
50
100.6965
51
102.282
0
POLYLINE
8
5
62
7
70
0
66
1
40
0
41
0
0
VERTEX
8
5
10
1.000297
20
2.174691
0
VERTEX
8
5
10
0.9978136
20
2.17162
0
VERTEX
8
5
10
1.001356
20
2.142481
0
VERTEX
8
5
10
1.068677
20
2.147539
0
VERTEX
8
5
10
1.070351
20
2.150625
0
SEQEND
8
5
0
POLYLINE
8
5
62
7
70
1
66
1
40
0
41
0
0
VERTEX
8
5
10
1.044134
20
2.180159
0
VERTEX
8
5
10
1.045464
20
2.16352
0
VERTEX
8
5
10
1.069776
20
2.164135
0
VERTEX
8
5
10
1.070369
20
2.151663
0
VERTEX
8
5
10
1.003876
20
2.147629
0
VERTEX
8
5
10
1.000315
20
2.17573
0
SEQEND
8
5
0
POLYLINE
8
5
62
7
70
0
66
1
40
0
41
0
0
VERTEX
8
5
10
1.220047
20
2.174695
0
VERTEX
8
5
10
1.22253
20
2.171623
0
VERTEX
8
5
10
1.218989
20
2.142485
0
VERTEX
8
5
10
1.151668
20
2.14754
0
VERTEX
8
5
10
1.149994
20
2.150626
0
SEQEND
8
5
0
POLYLINE
8
5
62
7
70
1
66
1
40
0
41
0
0
VERTEX
8
5
10
1.176209
20
2.180161
0
VERTEX
8
5
10
1.17488
20
2.163522
0
VERTEX
8
5
10
1.150568
20
2.164136
0
VERTEX
8
5
10
1.149975
20
2.151664
0
VERTEX
8
5
10
1.216469
20
2.147632
0
VERTEX
8
5
10
1.220029
20
2.175733
0
SEQEND
8
5
0
POLYLINE
8
5
62
7
70
0
66
1
40
0
41
0
0
VERTEX
8
5
10
0.6781028
20
2.090034
0
VERTEX
8
5
10
0.6766747
20
2.086351
0
VERTEX
8
5
10
0.6889337
20
2.05968
0
VERTEX
8
5
10
0.7515062
20
2.085027
0
VERTEX
8
5
10
0.7521592
20
2.088477
0
SEQEND
8
5
0
POLYLINE
8
5
62
7
70
1
66
1
40
0
41
0
0
VERTEX
8
5
10
0.7181841
20
2.108609
0
VERTEX
8
5
10
0.7245253
20
2.093168
0
VERTEX
8
5
10
0.747491
20
2.101168
0
VERTEX
8
5
10
0.7518598
20
2.089471
0
VERTEX
8
5
10
0.6897638
20
2.065351
0
VERTEX
8
5
10
0.6778033
20
2.091028
0
SEQEND
8
5
0
ARC
8
5
62
7
10
1.08491
20
1.136188
40
1.028951
50
122.05
51
124.0694
0
POLYLINE
8
5
62
7
70
0
66
1
40
0
41
0
0
VERTEX
8
5
10
0.5727623
20
2.036979
0
VERTEX
8
5
10
0.5765722
20
2.035934
0
VERTEX
8
5
10
0.5907026
20
2.010206
0
VERTEX
8
5
10
0.5330861
20
1.97502
0
VERTEX
8
5
10
0.5299252
20
1.976549
0
SEQEND
8
5
0
POLYLINE
8
5
62
7
70
1
66
1
40
0
41
0
0
VERTEX
8
5
10
0.5339764
20
2.015833
0
VERTEX
8
5
10
0.5426074
20
2.001546
0
VERTEX
8
5
10
0.5225075
20
1.987855
0
VERTEX
8
5
10
0.5293053
20
1.977382
0
VERTEX
8
5
10
0.5856524
20
2.012916
0
VERTEX
8
5
10
0.5721427
20
2.037812
0
SEQEND
8
5
0
POLYLINE
8
5
62
7
70
0
66
1
40
0
41
0
0
VERTEX
8
5
10
0.5161751
20
1.977131
0
VERTEX
8
5
10
0.5192049
20
1.972916
0
VERTEX
8
5
10
0.4731696
20
1.939826
0
VERTEX
8
5
10
0.4701398
20
1.944041
0
SEQEND
8
5
0
POLYLINE
8
5
62
7
70
1
66
1
40
0
41
0
0
VERTEX
8
5
10
0.5155149
20
1.978495
0
VERTEX
8
5
10
0.5025416
20
1.996542
0
VERTEX
8
5
10
0.456085
20
1.96315
0
VERTEX
8
5
10
0.4690574
20
1.945102
0
SEQEND
8
5
0
ARC
8
5
62
7
10
1.09698
20
1.142267
40
1.028951
50
118.5086
51
120.0858
0
ARC
8
5
62
7
10
1.09698
20
1.142267
40
1.028951
50
113.9775
51
115.355
0
POLYLINE
8
5
62
7
70
0
66
1
40
0
41
0
0
VERTEX
8
5
10
0.6333345
20
1.995835
0
VERTEX
8
5
10
0.6356793
20
1.991203
0
VERTEX
8
5
10
0.6862643
20
2.016802
0
VERTEX
8
5
10
0.6839204
20
2.021434
0
SEQEND
8
5
0
POLYLINE
8
5
62
7
70
1
66
1
40
0
41
0
0
VERTEX
8
5
10
0.6324297
20
1.99705
0
VERTEX
8
5
10
0.6223934
20
2.016881
0
VERTEX
8
5
10
0.6734422
20
2.042714
0
VERTEX
8
5
10
0.6834784
20
2.022883
0
SEQEND
8
5
0
POLYLINE
8
5
62
7
70
0
66
1
40
0
41
0
0
VERTEX
8
5
10
0.6333275
20
1.995831
0
VERTEX
8
5
10
0.6356714
20
1.991199
0
VERTEX
8
5
10
0.6862558
20
2.016798
0
VERTEX
8
5
10
0.6839126
20
2.02143
0
SEQEND
8
5
0
POLYLINE
8
5
62
7
70
1
66
1
40
0
41
0
0
VERTEX
8
5
10
0.632422
20
1.997045
0
VERTEX
8
5
10
0.6223858
20
2.016877
0
VERTEX
8
5
10
0.6734336
20
2.042711
0
VERTEX
8
5
10
0.6834698
20
2.022879
0
SEQEND
8
5
0
POLYLINE
8
5
62
7
70
0
66
1
40
0
41
0
0
VERTEX
8
5
10
0.6121429
20
2.034219
0
VERTEX
8
5
10
0.614491
20
2.029589
0
VERTEX
8
5
10
0.6650549
20
2.05523
0
VERTEX
8
5
10
0.6627074
20
2.05986
0
SEQEND
8
5
0
POLYLINE
8
5
62
7
70
1
66
1
40
0
41
0
0
VERTEX
8
5
10
0.6112364
20
2.035433
0
VERTEX
8
5
10
0.601184
20
2.055256
0
VERTEX
8
5
10
0.652211
20
2.081131
0
VERTEX
8
5
10
0.6622637
20
2.061308
0
SEQEND
8
5
0
POLYLINE
8
5
62
7
70
0
66
1
40
0
41
0
0
VERTEX
8
5
10
0.8601295
20
2.083232
0
VERTEX
8
5
10
0.8610767
20
2.080275
0
VERTEX
8
5
10
0.7457305
20
2.043335
0
VERTEX
8
5
10
0.74431
20
2.047771
0
SEQEND
8
5
0
POLYLINE
8
5
62
7
70
1
66
1
40
0
41
0
0
VERTEX
8
5
10
0.8534995
20
2.103935
0
VERTEX
8
5
10
0.7381533
20
2.066995
0
VERTEX
8
5
10
0.74431
20
2.047771
0
VERTEX
8
5
10
0.8596557
20
2.084711
0
SEQEND
8
5
0
POLYLINE
8
5
62
7
70
0
66
1
40
0
41
0
0
VERTEX
8
5
10
0.8151048
20
2.117558
0
VERTEX
8
5
10
0.8166884
20
2.112613
0
VERTEX
8
5
10
0.7626959
20
2.095322
0
VERTEX
8
5
10
0.7611123
20
2.100266
0
SEQEND
8
5
0
POLYLINE
8
5
62
7
70
1
66
1
40
0
41
0
0
VERTEX
8
5
10
0.8148972
20
2.119059
0
VERTEX
8
5
10
0.8081182
20
2.140226
0
VERTEX
8
5
10
0.7536312
20
2.122776
0
VERTEX
8
5
10
0.7604102
20
2.101609
0
SEQEND
8
5
0
ARC
8
5
62
7
10
1.09698
20
1.142267
40
1.028951
50
104.0994
51
106.1188
0
ARC
8
5
62
7
10
1.09698
20
1.142267
40
1.028951
50
109.3557
51
111.3925
0
POLYLINE
8
5
62
7
70
0
66
1
40
0
41
0
0
VERTEX
8
5
10
0.9213144
20
2.141813
0
VERTEX
8
5
10
0.922134
20
2.136687
0
VERTEX
8
5
10
0.9781164
20
2.145638
0
VERTEX
8
5
10
0.9772969
20
2.150764
0
SEQEND
8
5
0
POLYLINE
8
5
62
7
70
0
66
1
40
0
41
0
0
VERTEX
8
5
10
0.9213225
20
2.141815
0
VERTEX
8
5
10
0.9221421
20
2.136689
0
VERTEX
8
5
10
0.978125
20
2.145639
0
VERTEX
8
5
10
0.9773055
20
2.150765
0
SEQEND
8
5
0
POLYLINE
8
5
62
7
70
1
66
1
40
0
41
0
0
VERTEX
8
5
10
0.9284765
20
2.100071
0
VERTEX
8
5
10
0.9249669
20
2.122019
0
VERTEX
8
5
10
0.9814619
20
2.131052
0
VERTEX
8
5
10
0.9849716
20
2.109105
0
SEQEND
8
5
0
POLYLINE
8
5
62
7
70
0
66
1
40
0
41
0
0
VERTEX
8
5
10
0.9289683
20
2.098639
0
VERTEX
8
5
10
0.929788
20
2.093512
0
VERTEX
8
5
10
0.9857701
20
2.102464
0
VERTEX
8
5
10
0.9849509
20
2.10759
0
SEQEND
8
5
0
POLYLINE
8
5
62
7
70
1
66
1
40
0
41
0
0
VERTEX
8
5
10
0.9284848
20
2.100073
0
VERTEX
8
5
10
0.9249755
20
2.12202
0
VERTEX
8
5
10
0.9814705
20
2.131053
0
VERTEX
8
5
10
0.9849802
20
2.109106
0
SEQEND
8
5
0
POLYLINE
8
5
62
7
70
0
66
1
40
0
41
0
0
VERTEX
8
5
10
0.9289764
20
2.09864
0
VERTEX
8
5
10
0.9297961
20
2.093514
0
VERTEX
8
5
10
0.9857787
20
2.102465
0
VERTEX
8
5
10
0.9849595
20
2.107591
0
SEQEND
8
5
0
POLYLINE
8
5
62
7
70
0
66
1
40
0
41
0
0
VERTEX
8
5
10
1.048767
20
2.112701
0
VERTEX
8
5
10
1.048767
20
2.109595
0
VERTEX
8
5
10
1.169884
20
2.109595
0
VERTEX
8
5
10
1.169884
20
2.114254
0
SEQEND
8
5
0
POLYLINE
8
5
62
7
70
1
66
1
40
0
41
0
0
VERTEX
8
5
10
1.048767
20
2.134439
0
VERTEX
8
5
10
1.169884
20
2.134439
0
VERTEX
8
5
10
1.169884
20
2.114254
0
VERTEX
8
5
10
1.048767
20
2.114254
0
SEQEND
8
5
0
ARC
8
5
62
7
10
1.11019
20
1.144331
40
1.028951
50
82.4028
51
83.78025
0
ARC
8
5
62
7
10
1.11019
20
1.144331
40
1.028951
50
86.36533
51
88.40211
0
ARC
8
5
62
7
10
1.11019
20
1.144331
40
1.028951
50
91.639
51
93.65838
0
ARC
8
5
62
7
10
1.11019
20
1.144331
40
1.028951
50
96.24087
51
97.51676
0
POLYLINE
8
5
62
7
70
0
66
1
40
0
41
0
0
VERTEX
8
5
10
1.081177
20
2.159123
0
VERTEX
8
5
10
1.081177
20
2.153932
0
VERTEX
8
5
10
1.137871
20
2.153932
0
VERTEX
8
5
10
1.137871
20
2.159123
0
SEQEND
8
5
0
POLYLINE
8
5
62
7
70
1
66
1
40
0
41
0
0
VERTEX
8
5
10
1.080917
20
2.160616
0
VERTEX
8
5
10
1.080917
20
2.182842
0
VERTEX
8
5
10
1.138131
20
2.182842
0
VERTEX
8
5
10
1.138131
20
2.160616
0
SEQEND
8
5
0
POLYLINE
8
2
62
1
70
0
66
1
40
0
41
0
0
VERTEX
8
2
10
1.896519
20
2.211779
0
VERTEX
8
2
10
1.863917
20
2.231587
0
VERTEX
8
2
10
1.879934
20
2.255544
0
VERTEX
8
2
10
1.912537
20
2.235737
0
SEQEND
8
2
0
POLYLINE
8
2
62
5
70
4
75
6
66
1
40
0
41
0
0
VERTEX
8
2
10
1.904206
20
2.240253
70
16
0
VERTEX
8
2
10
1.922676
20
2.277462
70
16
0
VERTEX
8
2
10
1.952042
20
2.325376
70
16
0
VERTEX
8
2
10
1.992086
20
2.366445
70
16
0
VERTEX
8
2
10
2.02946
20
2.383558
70
16
0
VERTEX
8
2
10
2.085522
20
2.393825
70
16
0
VERTEX
8
2
10
1.904206
20
2.240253
70
8
0
VERTEX
8
2
10
1.910961
20
2.253601
70
8
0
VERTEX
8
2
10
1.917397
20
2.265802
70
8
0
VERTEX
8
2
10
1.923552
20
2.276951
70
8
0
VERTEX
8
2
10
1.929461
20
2.287142
70
8
0
VERTEX
8
2
10
1.935161
20
2.296472
70
8
0
VERTEX
8
2
10
1.940689
20
2.305035
70
8
0
VERTEX
8
2
10
1.946081
20
2.312927
70
8
0
VERTEX
8
2
10
1.951374
20
2.320242
70
8
0
VERTEX
8
2
10
1.956605
20
2.327066
70
8
0
VERTEX
8
2
10
1.961813
20
2.333438
70
8
0
VERTEX
8
2
10
1.967036
20
2.339388
70
8
0
VERTEX
8
2
10
1.972314
20
2.344948
70
8
0
VERTEX
8
2
10
1.977686
20
2.350147
70
8
0
VERTEX
8
2
10
1.98319
20
2.355015
70
8
0
VERTEX
8
2
10
1.988867
20
2.359582
70
8
0
VERTEX
8
2
10
1.994755
20
2.363879
70
8
0
VERTEX
8
2
10
2.000955
20
2.367938
70
8
0
VERTEX
8
2
10
2.007811
20
2.371806
70
8
0
VERTEX
8
2
10
2.015731
20
2.375535
70
8
0
VERTEX
8
2
10
2.025122
20
2.379173
70
8
0
VERTEX
8
2
10
2.03639
20
2.382771
70
8
0
VERTEX
8
2
10
2.049941
20
2.386379
70
8
0
VERTEX
8
2
10
2.066183
20
2.390047
70
8
0
VERTEX
8
2
10
2.085522
20
2.393825
70
8
0
SEQEND
8
2
0
ARC
8
5
62
7
10
1.123507
20
1.142233
40
1.028951
50
68.43487
51
70.45426
0
POLYLINE
8
5
62
7
70
0
66
1
40
0
41
0
0
VERTEX
8
5
10
1.54488
20
2.088892
0
VERTEX
8
5
10
1.546299
20
2.085206
0
VERTEX
8
5
10
1.533969
20
2.058568
0
VERTEX
8
5
10
1.471464
20
2.08408
0
VERTEX
8
5
10
1.47082
20
2.087531
0
SEQEND
8
5
0
POLYLINE
8
5
62
7
70
1
66
1
40
0
41
0
0
VERTEX
8
5
10
1.504848
20
2.107573
0
VERTEX
8
5
10
1.498466
20
2.092149
0
VERTEX
8
5
10
1.475521
20
2.10021
0
VERTEX
8
5
10
1.471122
20
2.088524
0
VERTEX
8
5
10
1.533154
20
2.064241
0
VERTEX
8
5
10
1.545183
20
2.089885
0
SEQEND
8
5
0
POLYLINE
8
5
62
7
70
0
66
1
40
0
41
0
0
VERTEX
8
5
10
1.335777
20
2.156462
0
VERTEX
8
5
10
1.332469
20
2.154302
0
VERTEX
8
5
10
1.326879
20
2.125486
0
VERTEX
8
5
10
1.392494
20
2.109598
0
VERTEX
8
5
10
1.395036
20
2.11202
0
SEQEND
8
5
0
POLYLINE
8
5
62
7
70
1
66
1
40
0
41
0
0
VERTEX
8
5
10
1.379171
20
2.148184
0
VERTEX
8
5
10
1.375321
20
2.131943
0
VERTEX
8
5
10
1.398643
20
2.125052
0
VERTEX
8
5
10
1.395372
20
2.113002
0
VERTEX
8
5
10
1.33086
20
2.12961
0
VERTEX
8
5
10
1.336113
20
2.157444
0
SEQEND
8
5
0
ARC
8
5
62
7
10
1.11019
20
1.144331
40
1.028951
50
77.67201
51
79.24917
0
ARC
8
5
62
7
10
1.123507
20
1.142233
40
1.028951
50
73.69114
51
75.72792
0
POLYLINE
8
5
62
7
70
0
66
1
40
0
41
0
0
VERTEX
8
5
10
1.479698
20
2.044807
0
VERTEX
8
5
10
1.478743
20
2.041852
0
VERTEX
8
5
10
1.363494
20
2.079092
0
VERTEX
8
5
10
1.364926
20
2.083525
0
SEQEND
8
5
0
POLYLINE
8
5
62
7
70
1
66
1
40
0
41
0
0
VERTEX
8
5
10
1.486382
20
2.065492
0
VERTEX
8
5
10
1.371132
20
2.102732
0
VERTEX
8
5
10
1.364926
20
2.083525
0
VERTEX
8
5
10
1.480176
20
2.046285
0
SEQEND
8
5
0
POLYLINE
8
5
62
7
70
0
66
1
40
0
41
0
0
VERTEX
8
5
10
1.463131
20
2.098946
0
VERTEX
8
5
10
1.461535
20
2.094006
0
VERTEX
8
5
10
1.407588
20
2.111438
0
VERTEX
8
5
10
1.409184
20
2.116378
0
SEQEND
8
5
0
POLYLINE
8
5
62
7
70
1
66
1
40
0
41
0
0
VERTEX
8
5
10
1.463837
20
2.100286
0
VERTEX
8
5
10
1.470671
20
2.121436
0
VERTEX
8
5
10
1.41623
20
2.139028
0
VERTEX
8
5
10
1.409396
20
2.117877
0
SEQEND
8
5
0
LINE
8
2
62
5
10
1.776621
20
2.088364
11
1.880339
21
2.221014
0
ARC
8
5
62
7
10
1.13549
20
1.136173
40
1.028951
50
55.85605
51
57.89283
0
POLYLINE
8
5
62
7
70
0
66
1
40
0
41
0
0
VERTEX
8
5
10
1.648195
20
2.036647
0
VERTEX
8
5
10
1.644385
20
2.035604
0
VERTEX
8
5
10
1.630238
20
2.009885
0
VERTEX
8
5
10
1.687833
20
1.974664
0
VERTEX
8
5
10
1.690995
20
1.976191
0
SEQEND
8
5
0
POLYLINE
8
5
62
7
70
1
66
1
40
0
41
0
0
VERTEX
8
5
10
1.686969
20
2.015476
0
VERTEX
8
5
10
1.678329
20
2.001195
0
VERTEX
8
5
10
1.69842
20
1.987492
0
VERTEX
8
5
10
1.691616
20
1.977023
0
VERTEX
8
5
10
1.635291
20
2.012592
0
VERTEX
8
5
10
1.648816
20
2.037479
0
SEQEND
8
5
0
POLYLINE
8
5
62
7
70
1
66
1
40
0
41
0
0
VERTEX
8
5
10
1.610836
20
2.034534
0
VERTEX
8
5
10
1.620924
20
2.054339
0
VERTEX
8
5
10
1.569943
20
2.080306
0
VERTEX
8
5
10
1.559855
20
2.0605
0
SEQEND
8
5
0
POLYLINE
8
5
62
7
70
0
66
1
40
0
41
0
0
VERTEX
8
5
10
1.609928
20
2.033322
0
VERTEX
8
5
10
1.607571
20
2.028696
0
VERTEX
8
5
10
1.557053
20
2.054426
0
VERTEX
8
5
10
1.559409
20
2.059053
0
SEQEND
8
5
0
POLYLINE
8
5
62
7
70
1
66
1
40
0
41
0
0
VERTEX
8
5
10
1.610829
20
2.034539
0
VERTEX
8
5
10
1.620916
20
2.054343
0
VERTEX
8
5
10
1.569935
20
2.080309
0
VERTEX
8
5
10
1.559847
20
2.060503
0
SEQEND
8
5
0
POLYLINE
8
5
62
7
70
0
66
1
40
0
41
0
0
VERTEX
8
5
10
1.60992
20
2.033326
0
VERTEX
8
5
10
1.607564
20
2.0287
0
VERTEX
8
5
10
1.557046
20
2.05443
0
VERTEX
8
5
10
1.559401
20
2.059056
0
SEQEND
8
5
0
POLYLINE
8
5
62
7
70
1
66
1
40
0
41
0
0
VERTEX
8
5
10
1.590278
20
1.995804
0
VERTEX
8
5
10
1.600366
20
2.01561
0
VERTEX
8
5
10
1.549385
20
2.041576
0
VERTEX
8
5
10
1.539297
20
2.021771
0
SEQEND
8
5
0
POLYLINE
8
5
62
7
70
0
66
1
40
0
41
0
0
VERTEX
8
5
10
1.589369
20
1.994592
0
VERTEX
8
5
10
1.587013
20
1.989966
0
VERTEX
8
5
10
1.536496
20
2.015697
0
VERTEX
8
5
10
1.538851
20
2.020323
0
SEQEND
8
5
0
POLYLINE
8
5
62
7
70
1
66
1
40
0
41
0
0
VERTEX
8
5
10
1.590271
20
1.995809
0
VERTEX
8
5
10
1.600358
20
2.015614
0
VERTEX
8
5
10
1.549377
20
2.04158
0
VERTEX
8
5
10
1.539289
20
2.021774
0
SEQEND
8
5
0
POLYLINE
8
5
62
7
70
0
66
1
40
0
41
0
0
VERTEX
8
5
10
1.589363
20
1.994596
0
VERTEX
8
5
10
1.587006
20
1.98997
0
VERTEX
8
5
10
1.536488
20
2.0157
0
VERTEX
8
5
10
1.538843
20
2.020326
0
SEQEND
8
5
0
ARC
8
5
62
7
10
1.123507
20
1.142233
40
1.028951
50
59.8112
51
61.39675
0
ARC
8
5
62
7
10
1.123507
20
1.142233
40
1.028951
50
64.57649
51
65.85238
0
LINE
8
4
62
7
10
1.653383
20
1.958692
11
1.664775
21
1.976033
0
POLYLINE
8
5
62
7
70
0
66
1
40
0
41
0
0
VERTEX
8
5
10
1.745171
20
1.941273
0
VERTEX
8
5
10
1.702765
20
1.971792
0
VERTEX
8
5
10
1.705798
20
1.976006
0
SEQEND
8
5
0
LINE
8
4
62
7
10
1.70678
20
1.976033
11
1.75021
21
1.945913
0
LINE
8
4
62
7
10
1.763025
20
1.964168
11
1.71746
21
1.997026
0
LINE
8
4
62
7
10
1.718172
20
1.997026
11
1.706068
21
1.976946
0
POLYLINE
8
2
62
5
70
1
66
1
40
0
41
0
0
VERTEX
8
2
10
1.781686
20
2.101982
0
VERTEX
8
2
10
1.752451
20
2.064563
0
VERTEX
8
2
10
1.758126
20
2.060129
0
VERTEX
8
2
10
1.787361
20
2.097548
0
SEQEND
8
2
0
POLYLINE
8
2
62
5
70
0
66
1
40
0
41
0
0
VERTEX
8
2
10
1.77925
20
2.098864
0
VERTEX
8
2
10
1.767899
20
2.107732
0
VERTEX
8
2
10
1.758966
20
2.096299
0
VERTEX
8
2
10
1.770317
20
2.08743
0
SEQEND
8
2
0
LINE
8
2
62
5
10
1.775188
20
2.091994
11
1.763026
21
2.101496
0
POLYLINE
8
2
62
5
70
0
66
1
40
0
41
0
0
VERTEX
8
2
10
1.784925
20
2.09443
0
VERTEX
8
2
10
1.788979
20
2.091263
0
VERTEX
8
2
10
1.780046
20
2.079829
0
VERTEX
8
2
10
1.775992
20
2.082996
0
SEQEND
8
2
0
LINE
8
2
62
5
10
1.776428
20
2.087195
11
1.762024
21
2.034433
0
POLYLINE
8
2
62
1
70
0
66
1
40
0
41
0
0
VERTEX
8
2
10
1.915662
20
2.154837
0
VERTEX
8
2
10
1.89598
20
2.212435
0
VERTEX
8
2
10
1.912565
20
2.235737
0
VERTEX
8
2
10
1.966428
20
2.218972
0
SEQEND
8
2
0
LINE
8
2
62
7
10
2.027435
20
2.595277
11
1.973253
21
2.761881
0
LINE
8
2
62
7
10
2.115838
20
2.617932
11
2.057465
21
2.797041
0
LINE
8
2
62
5
10
2.192636
20
2.401408
11
2.432494
21
2.41472
0
LINE
8
2
62
5
10
2.197102
20
2.391159
11
2.432568
21
2.404227
0
LINE
8
2
62
1
10
2.168373
20
2.476691
11
2.138729
21
2.567925
0
CIRCLE
8
2
62
7
10
2.020597
20
2.496697
40
0.03204372
0
LINE
8
2
62
7
10
2.045981
20
2.5382
11
2.034732
21
2.57282
0
LINE
8
2
62
7
10
2.054786
20
2.601892
11
2.061624
21
2.578515
0
LINE
8
2
62
7
10
2.133509
20
2.563545
11
2.125763
21
2.587385
0
LINE
8
2
62
1
10
2.045432
20
2.516761
11
2.03839
21
2.538436
0
LINE
8
2
62
1
10
2.039594
20
2.534977
11
2.027331
21
2.531483
0
LINE
8
2
62
1
10
2.043682
20
2.474711
11
2.059352
21
2.475584
0
ARC
8
2
62
1
10
2.069234
20
2.618393
40
0.08552893
50
249.047
51
324.537
0
LINE
8
2
62
1
10
2.09144
20
2.375163
11
2.052887
21
2.493818
0
ARC
8
2
62
7
10
2.021594
20
2.470383
40
0.014958
50
191.2043
51
349.6721
0
POLYLINE
8
2
62
7
70
0
66
1
40
0
41
0
0
VERTEX
8
2
10
2.000083
20
2.520074
0
VERTEX
8
2
10
1.990965
20
2.587281
0
VERTEX
8
2
10
2.155503
20
2.628556
0
VERTEX
8
2
10
2.16462
20
2.590569
0
VERTEX
8
2
10
2.020597
20
2.569749
0
VERTEX
8
2
10
2.02843
20
2.527068
0
SEQEND
8
2
0
POLYLINE
8
2
62
5
70
4
75
6
66
1
40
0
41
0
0
VERTEX
8
2
10
1.890641
20
2.250082
70
16
0
VERTEX
8
2
10
1.933354
20
2.328799
70
16
0
VERTEX
8
2
10
1.989416
20
2.390403
70
16
0
VERTEX
8
2
10
2.042808
20
2.404093
70
16
0
VERTEX
8
2
10
2.081004
20
2.407357
70
16
0
VERTEX
8
2
10
1.890641
20
2.250082
70
8
0
VERTEX
8
2
10
1.905998
20
2.277425
70
8
0
VERTEX
8
2
10
1.920142
20
2.300697
70
8
0
VERTEX
8
2
10
1.933238
20
2.320319
70
8
0
VERTEX
8
2
10
1.945451
20
2.336713
70
8
0
VERTEX
8
2
10
1.956944
20
2.350299
70
8
0
VERTEX
8
2
10
1.967882
20
2.361499
70
8
0
VERTEX
8
2
10
1.978429
20
2.370734
70
8
0
VERTEX
8
2
10
1.988749
20
2.378424
70
8
0
VERTEX
8
2
10
1.999003
20
2.384938
70
8
0
VERTEX
8
2
10
2.009336
20
2.390427
70
8
0
VERTEX
8
2
10
2.019893
20
2.39499
70
8
0
VERTEX
8
2
10
2.030814
20
2.398725
70
8
0
VERTEX
8
2
10
2.042244
20
2.401731
70
8
0
VERTEX
8
2
10
2.054323
20
2.404106
70
8
0
VERTEX
8
2
10
2.067196
20
2.405949
70
8
0
VERTEX
8
2
10
2.081004
20
2.407357
70
8
0
SEQEND
8
2
0
ARC
8
2
62
1
10
2.190794
20
2.444969
40
0.03846469
50
125.3943
51
270.8226
0
ARC
8
2
62
1
10
2.089748
20
2.338643
40
0.0365589
50
308.6529
51
87.34691
0
POLYLINE
8
2
62
1
70
0
66
1
40
0
41
0
0
VERTEX
8
2
10
2.431664
20
2.41931
0
VERTEX
8
2
10
2.43345
20
2.399844
0
VERTEX
8
2
10
2.453994
20
2.400989
0
VERTEX
8
2
10
2.4531
20
2.420455
0
SEQEND
8
2
0
LINE
8
4
62
7
10
1.807306
20
3.018146
11
2.414691
21
3.018146
0
POLYLINE
8
2
62
7
70
4
75
6
66
1
40
0
41
0
0
VERTEX
8
2
10
1.724275
20
2.894267
70
16
0
VERTEX
8
2
10
1.740163
20
2.863714
70
16
0
VERTEX
8
2
10
1.782531
20
2.84674
70
16
0
VERTEX
8
2
10
1.832844
20
2.843345
70
16
0
VERTEX
8
2
10
1.909637
20
2.84674
70
16
0
VERTEX
8
2
10
1.957301
20
2.867109
70
16
0
VERTEX
8
2
10
1.994373
20
2.890873
70
16
0
VERTEX
8
2
10
2.036742
20
2.921426
70
16
0
VERTEX
8
2
10
2.113535
20
2.941794
70
16
0
VERTEX
8
2
10
2.190327
20
2.955374
70
16
0
VERTEX
8
2
10
2.269768
20
2.965558
70
16
0
VERTEX
8
2
10
2.346561
20
2.968952
70
16
0
VERTEX
8
2
10
2.388929
20
2.968952
70
16
0
VERTEX
8
2
10
2.418057
20
2.968952
70
16
0
VERTEX
8
2
10
2.439242
20
2.965558
70
16
0
VERTEX
8
2
10
2.452482
20
2.951978
70
16
0
VERTEX
8
2
10
2.463074
20
2.9384
70
16
0
VERTEX
8
2
10
2.471018
20
2.921426
70
16
0
VERTEX
8
2
10
2.471018
20
2.904452
70
16
0
VERTEX
8
2
10
2.465722
20
2.890873
70
16
0
VERTEX
8
2
10
2.457778
20
2.884083
70
16
0
VERTEX
8
2
10
1.724275
20
2.894267
70
8
0
VERTEX
8
2
10
1.730466
20
2.883808
70
8
0
VERTEX
8
2
10
1.737067
20
2.875203
70
8
0
VERTEX
8
2
10
1.743988
20
2.868235
70
8
0
VERTEX
8
2
10
1.751141
20
2.862689
70
8
0
VERTEX
8
2
10
1.75844
20
2.85835
70
8
0
VERTEX
8
2
10
1.765795
20
2.855002
70
8
0
VERTEX
8
2
10
1.773119
20
2.85243
70
8
0
VERTEX
8
2
10
1.780325
20
2.850418
70
8
0
VERTEX
8
2
10
1.787351
20
2.848782
70
8
0
VERTEX
8
2
10
1.794248
20
2.847461
70
8
0
VERTEX
8
2
10
1.801093
20
2.846425
70
8
0
VERTEX
8
2
10
1.807963
20
2.845644
70
8
0
VERTEX
8
2
10
1.814938
20
2.845089
70
8
0
VERTEX
8
2
10
1.822093
20
2.844729
70
8
0
VERTEX
8
2
10
1.829507
20
2.844535
70
8
0
VERTEX
8
2
10
1.837257
20
2.844477
70
8
0
VERTEX
8
2
10
1.84539
20
2.844533
70
8
0
VERTEX
8
2
10
1.853828
20
2.844716
70
8
0
VERTEX
8
2
10
1.862463
20
2.845044
70
8
0
VERTEX
8
2
10
1.871185
20
2.845538
70
8
0
VERTEX
8
2
10
1.879887
20
2.846218
70
8
0
VERTEX
8
2
10
1.888459
20
2.847103
70
8
0
VERTEX
8
2
10
1.896794
20
2.848213
70
8
0
VERTEX
8
2
10
1.904782
20
2.849569
70
8
0
VERTEX
8
2
10
1.912339
20
2.851183
70
8
0
VERTEX
8
2
10
1.919477
20
2.853035
70
8
0
VERTEX
8
2
10
1.926232
20
2.855099
70
8
0
VERTEX
8
2
10
1.932641
20
2.857349
70
8
0
VERTEX
8
2
10
1.93874
20
2.859758
70
8
0
VERTEX
8
2
10
1.944564
20
2.8623
70
8
0
VERTEX
8
2
10
1.950151
20
2.864948
70
8
0
VERTEX
8
2
10
1.955536
20
2.867675
70
8
0
VERTEX
8
2
10
1.960754
20
2.870461
70
8
0
VERTEX
8
2
10
1.965838
20
2.873306
70
8
0
VERTEX
8
2
10
1.970819
20
2.876218
70
8
0
VERTEX
8
2
10
1.975727
20
2.879203
70
8
0
VERTEX
8
2
10
1.980594
20
2.882267
70
8
0
VERTEX
8
2
10
1.98545
20
2.885418
70
8
0
VERTEX
8
2
10
1.990327
20
2.888661
70
8
0
VERTEX
8
2
10
1.995256
20
2.892004
70
8
0
VERTEX
8
2
10
2.000272
20
2.895447
70
8
0
VERTEX
8
2
10
2.005428
20
2.898962
70
8
0
VERTEX
8
2
10
2.01078
20
2.902517
70
8
0
VERTEX
8
2
10
2.016385
20
2.906078
70
8
0
VERTEX
8
2
10
2.022301
20
2.909614
70
8
0
VERTEX
8
2
10
2.028584
20
2.913089
70
8
0
VERTEX
8
2
10
2.035291
20
2.916472
70
8
0
VERTEX
8
2
10
2.042479
20
2.919728
70
8
0
VERTEX
8
2
10
2.050185
20
2.922832
70
8
0
VERTEX
8
2
10
2.058361
20
2.925784
70
8
0
VERTEX
8
2
10
2.06694
20
2.92859
70
8
0
VERTEX
8
2
10
2.075856
20
2.931256
70
8
0
VERTEX
8
2
10
2.08504
20
2.93379
70
8
0
VERTEX
8
2
10
2.094426
20
2.936198
70
8
0
VERTEX
8
2
10
2.103947
20
2.938487
70
8
0
VERTEX
8
2
10
2.113535
20
2.940663
70
8
0
VERTEX
8
2
10
2.123135
20
2.942732
70
8
0
VERTEX
8
2
10
2.13274
20
2.944703
70
8
0
VERTEX
8
2
10
2.142355
20
2.94658
70
8
0
VERTEX
8
2
10
2.151986
20
2.948372
70
8
0
VERTEX
8
2
10
2.161638
20
2.950083
70
8
0
VERTEX
8
2
10
2.171315
20
2.951722
70
8
0
VERTEX
8
2
10
2.181024
20
2.953295
70
8
0
VERTEX
8
2
10
2.190769
20
2.954808
70
8
0
VERTEX
8
2
10
2.200552
20
2.956265
70
8
0
VERTEX
8
2
10
2.210367
20
2.957663
70
8
0
VERTEX
8
2
10
2.220202
20
2.958995
70
8
0
VERTEX
8
2
10
2.230048
20
2.960253
70
8
0
VERTEX
8
2
10
2.239893
20
2.961433
70
8
0
VERTEX
8
2
10
2.249729
20
2.962526
70
8
0
VERTEX
8
2
10
2.259543
20
2.963526
70
8
0
VERTEX
8
2
10
2.269327
20
2.964426
70
8
0
VERTEX
8
2
10
2.27906
20
2.965223
70
8
0
VERTEX
8
2
10
2.28869
20
2.96592
70
8
0
VERTEX
8
2
10
2.298155
20
2.966525
70
8
0
VERTEX
8
2
10
2.307392
20
2.967043
70
8
0
VERTEX
8
2
10
2.316339
20
2.967482
70
8
0
VERTEX
8
2
10
2.324935
20
2.967847
70
8
0
VERTEX
8
2
10
2.333117
20
2.968147
70
8
0
VERTEX
8
2
10
2.340823
20
2.968387
70
8
0
VERTEX
8
2
10
2.348009
20
2.968573
70
8
0
VERTEX
8
2
10
2.354698
20
2.968714
70
8
0
VERTEX
8
2
10
2.360932
20
2.968814
70
8
0
VERTEX
8
2
10
2.366752
20
2.968882
70
8
0
VERTEX
8
2
10
2.3722
20
2.968923
70
8
0
VERTEX
8
2
10
2.377316
20
2.968944
70
8
0
VERTEX
8
2
10
2.382144
20
2.968951
70
8
0
VERTEX
8
2
10
2.386722
20
2.968952
70
8
0
VERTEX
8
2
10
2.391089
20
2.968951
70
8
0
VERTEX
8
2
10
2.395259
20
2.968944
70
8
0
VERTEX
8
2
10
2.399244
20
2.968923
70
8
0
VERTEX
8
2
10
2.403052
20
2.968882
70
8
0
VERTEX
8
2
10
2.406695
20
2.968814
70
8
0
VERTEX
8
2
10
2.410182
20
2.968714
70
8
0
VERTEX
8
2
10
2.413525
20
2.968573
70
8
0
VERTEX
8
2
10
2.416733
20
2.968387
70
8
0
VERTEX
8
2
10
2.419816
20
2.968146
70
8
0
VERTEX
8
2
10
2.422774
20
2.967839
70
8
0
VERTEX
8
2
10
2.425608
20
2.967452
70
8
0
VERTEX
8
2
10
2.428318
20
2.966972
70
8
0
VERTEX
8
2
10
2.430904
20
2.966387
70
8
0
VERTEX
8
2
10
2.433366
20
2.965682
70
8
0
VERTEX
8
2
10
2.435704
20
2.964844
70
8
0
VERTEX
8
2
10
2.437918
20
2.96386
70
8
0
VERTEX
8
2
10
2.440009
20
2.962723
70
8
0
VERTEX
8
2
10
2.441986
20
2.961447
70
8
0
VERTEX
8
2
10
2.44386
20
2.960051
70
8
0
VERTEX
8
2
10
2.445641
20
2.958556
70
8
0
VERTEX
8
2
10
2.447339
20
2.956981
70
8
0
VERTEX
8
2
10
2.448965
20
2.955347
70
8
0
VERTEX
8
2
10
2.450528
20
2.953673
70
8
0
VERTEX
8
2
10
2.45204
20
2.951979
70
8
0
VERTEX
8
2
10
2.453509
20
2.95028
70
8
0
VERTEX
8
2
10
2.454937
20
2.948575
70
8
0
VERTEX
8
2
10
2.456323
20
2.946857
70
8
0
VERTEX
8
2
10
2.457667
20
2.945118
70
8
0
VERTEX
8
2
10
2.458971
20
2.943353
70
8
0
VERTEX
8
2
10
2.460233
20
2.941556
70
8
0
VERTEX
8
2
10
2.461453
20
2.939718
70
8
0
VERTEX
8
2
10
2.462633
20
2.937834
70
8
0
VERTEX
8
2
10
2.463769
20
2.935899
70
8
0
VERTEX
8
2
10
2.464853
20
2.933917
70
8
0
VERTEX
8
2
10
2.465875
20
2.931896
70
8
0
VERTEX
8
2
10
2.466825
20
2.929842
70
8
0
VERTEX
8
2
10
2.467693
20
2.927761
70
8
0
VERTEX
8
2
10
2.468467
20
2.92566
70
8
0
VERTEX
8
2
10
2.469137
20
2.923546
70
8
0
VERTEX
8
2
10
2.469694
20
2.921426
70
8
0
VERTEX
8
2
10
2.470129
20
2.919303
70
8
0
VERTEX
8
2
10
2.470439
20
2.917173
70
8
0
VERTEX
8
2
10
2.470625
20
2.915031
70
8
0
VERTEX
8
2
10
2.470687
20
2.912868
70
8
0
VERTEX
8
2
10
2.470625
20
2.910679
70
8
0
VERTEX
8
2
10
2.470439
20
2.908456
70
8
0
VERTEX
8
2
10
2.470128
20
2.906194
70
8
0
VERTEX
8
2
10
2.469694
20
2.903886
70
8
0
VERTEX
8
2
10
2.469128
20
2.901527
70
8
0
VERTEX
8
2
10
2.468391
20
2.899121
70
8
0
VERTEX
8
2
10
2.467436
20
2.896675
70
8
0
VERTEX
8
2
10
2.466218
20
2.894197
70
8
0
VERTEX
8
2
10
2.46469
20
2.891692
70
8
0
VERTEX
8
2
10
2.462805
20
2.889166
70
8
0
VERTEX
8
2
10
2.460516
20
2.886628
70
8
0
VERTEX
8
2
10
2.457778
20
2.884083
70
8
0
SEQEND
8
2
0
POLYLINE
8
4
62
7
70
4
75
6
66
1
40
0
41
0
0
VERTEX
8
4
10
1.971219
20
2.761096
70
16
0
VERTEX
8
4
10
2.068292
20
2.80257
70
16
0
VERTEX
8
4
10
2.210648
20
2.862039
70
16
0
VERTEX
8
4
10
2.390965
20
2.869473
70
16
0
VERTEX
8
4
10
2.481124
20
2.88434
70
16
0
VERTEX
8
4
10
2.50485
20
2.921509
70
16
0
VERTEX
8
4
10
2.485869
20
2.988411
70
16
0
VERTEX
8
4
10
2.447908
20
3.018146
70
16
0
VERTEX
8
4
10
2.414691
20
3.018146
70
16
0
VERTEX
8
4
10
1.971219
20
2.761096
70
8
0
VERTEX
8
4
10
2.006447
20
2.776095
70
8
0
VERTEX
8
4
10
2.039486
20
2.789971
70
8
0
VERTEX
8
4
10
2.070575
20
2.802702
70
8
0
VERTEX
8
4
10
2.099952
20
2.814266
70
8
0
VERTEX
8
4
10
2.127855
20
2.824642
70
8
0
VERTEX
8
4
10
2.154524
20
2.833805
70
8
0
VERTEX
8
4
10
2.180197
20
2.841736
70
8
0
VERTEX
8
4
10
2.205112
20
2.848411
70
8
0
VERTEX
8
4
10
2.229449
20
2.853841
70
8
0
VERTEX
8
4
10
2.253157
20
2.858168
70
8
0
VERTEX
8
4
10
2.276123
20
2.861565
70
8
0
VERTEX
8
4
10
2.298236
20
2.864207
70
8
0
VERTEX
8
4
10
2.319386
20
2.866269
70
8
0
VERTEX
8
4
10
2.33946
20
2.867924
70
8
0
VERTEX
8
4
10
2.358348
20
2.869347
70
8
0
VERTEX
8
4
10
2.375939
20
2.870712
70
8
0
VERTEX
8
4
10
2.392147
20
2.872168
70
8
0
VERTEX
8
4
10
2.406993
20
2.87377
70
8
0
VERTEX
8
4
10
2.420522
20
2.875546
70
8
0
VERTEX
8
4
10
2.432782
20
2.877526
70
8
0
VERTEX
8
4
10
2.443819
20
2.879738
70
8
0
VERTEX
8
4
10
2.453678
20
2.882211
70
8
0
VERTEX
8
4
10
2.462407
20
2.884974
70
8
0
VERTEX
8
4
10
2.470052
20
2.888057
70
8
0
VERTEX
8
4
10
2.476658
20
2.891486
70
8
0
VERTEX
8
4
10
2.482273
20
2.895278
70
8
0
VERTEX
8
4
10
2.486942
20
2.899447
70
8
0
VERTEX
8
4
10
2.490713
20
2.904008
70
8
0
VERTEX
8
4
10
2.493631
20
2.908976
70
8
0
VERTEX
8
4
10
2.495742
20
2.914365
70
8
0
VERTEX
8
4
10
2.497094
20
2.92019
70
8
0
VERTEX
8
4
10
2.497732
20
2.926464
70
8
0
VERTEX
8
4
10
2.497696
20
2.933184
70
8
0
VERTEX
8
4
10
2.497003
20
2.940267
70
8
0
VERTEX
8
4
10
2.495661
20
2.947611
70
8
0
VERTEX
8
4
10
2.493679
20
2.955115
70
8
0
VERTEX
8
4
10
2.491067
20
2.962677
70
8
0
VERTEX
8
4
10
2.487834
20
2.970195
70
8
0
VERTEX
8
4
10
2.483989
20
2.977568
70
8
0
VERTEX
8
4
10
2.479542
20
2.984694
70
8
0
VERTEX
8
4
10
2.474485
20
2.991467
70
8
0
VERTEX
8
4
10
2.468742
20
2.997761
70
8
0
VERTEX
8
4
10
2.46222
20
3.003445
70
8
0
VERTEX
8
4
10
2.454828
20
3.008389
70
8
0
VERTEX
8
4
10
2.446471
20
3.012462
70
8
0
VERTEX
8
4
10
2.437058
20
3.015532
70
8
0
VERTEX
8
4
10
2.426496
20
3.017471
70
8
0
VERTEX
8
4
10
2.414691
20
3.018146
70
8
0
SEQEND
8
4
0
POLYLINE
8
4
62
7
70
0
66
1
40
0
41
0
0
VERTEX
8
4
10
1.807306
20
3.018146
0
VERTEX
8
4
10
1.806568
20
3.017995
0
SEQEND
8
4
0
POLYLINE
8
2
62
7
70
4
75
6
66
1
40
0
41
0
0
VERTEX
8
2
10
1.717445
20
2.964582
70
16
0
VERTEX
8
2
10
1.703091
20
2.918031
70
16
0
VERTEX
8
2
10
1.711035
20
2.860319
70
16
0
VERTEX
8
2
10
1.734867
20
2.812793
70
16
0
VERTEX
8
2
10
1.761347
20
2.782239
70
16
0
VERTEX
8
2
10
1.806364
20
2.758476
70
16
0
VERTEX
8
2
10
1.859324
20
2.748292
70
16
0
VERTEX
8
2
10
1.909637
20
2.755081
70
16
0
VERTEX
8
2
10
1.97113
20
2.761116
70
16
0
VERTEX
8
2
10
1.717445
20
2.964582
70
8
0
VERTEX
8
2
10
1.712889
20
2.947933
70
8
0
VERTEX
8
2
10
1.70986
20
2.932812
70
8
0
VERTEX
8
2
10
1.708166
20
2.919087
70
8
0
VERTEX
8
2
10
1.707616
20
2.906628
70
8
0
VERTEX
8
2
10
1.708017
20
2.895304
70
8
0
VERTEX
8
2
10
1.70918
20
2.884983
70
8
0
VERTEX
8
2
10
1.710912
20
2.875534
70
8
0
VERTEX
8
2
10
1.713021
20
2.866826
70
8
0
VERTEX
8
2
10
1.715345
20
2.858743
70
8
0
VERTEX
8
2
10
1.717838
20
2.851227
70
8
0
VERTEX
8
2
10
1.72048
20
2.844235
70
8
0
VERTEX
8
2
10
1.723254
20
2.837723
70
8
0
VERTEX
8
2
10
1.726142
20
2.831649
70
8
0
VERTEX
8
2
10
1.729126
20
2.825969
70
8
0
VERTEX
8
2
10
1.732187
20
2.820641
70
8
0
VERTEX
8
2
10
1.735308
20
2.815621
70
8
0
VERTEX
8
2
10
1.738478
20
2.810871
70
8
0
VERTEX
8
2
10
1.741721
20
2.806365
70
8
0
VERTEX
8
2
10
1.745067
20
2.802085
70
8
0
VERTEX
8
2
10
1.748548
20
2.798011
70
8
0
VERTEX
8
2
10
1.752194
20
2.794122
70
8
0
VERTEX
8
2
10
1.756037
20
2.790399
70
8
0
VERTEX
8
2
10
1.760107
20
2.786822
70
8
0
VERTEX
8
2
10
1.764436
20
2.783371
70
8
0
VERTEX
8
2
10
1.769046
20
2.780031
70
8
0
VERTEX
8
2
10
1.773925
20
2.776811
70
8
0
VERTEX
8
2
10
1.779052
20
2.773724
70
8
0
VERTEX
8
2
10
1.784407
20
2.770782
70
8
0
VERTEX
8
2
10
1.789969
20
2.767999
70
8
0
VERTEX
8
2
10
1.795716
20
2.765389
70
8
0
VERTEX
8
2
10
1.80163
20
2.762965
70
8
0
VERTEX
8
2
10
1.807688
20
2.760739
70
8
0
VERTEX
8
2
10
1.813878
20
2.758726
70
8
0
VERTEX
8
2
10
1.820221
20
2.756938
70
8
0
VERTEX
8
2
10
1.826745
20
2.755388
70
8
0
VERTEX
8
2
10
1.833478
20
2.754091
70
8
0
VERTEX
8
2
10
1.84045
20
2.753059
70
8
0
VERTEX
8
2
10
1.847687
20
2.752305
70
8
0
VERTEX
8
2
10
1.85522
20
2.751843
70
8
0
VERTEX
8
2
10
1.863075
20
2.751686
70
8
0
VERTEX
8
2
10
1.871342
20
2.751844
70
8
0
VERTEX
8
2
10
1.880342
20
2.752311
70
8
0
VERTEX
8
2
10
1.890457
20
2.753079
70
8
0
VERTEX
8
2
10
1.90207
20
2.754138
70
8
0
VERTEX
8
2
10
1.915561
20
2.75548
70
8
0
VERTEX
8
2
10
1.931314
20
2.757097
70
8
0
VERTEX
8
2
10
1.94971
20
2.758978
70
8
0
VERTEX
8
2
10
1.97113
20
2.761116
70
8
0
SEQEND
8
2
0
POLYLINE
8
2
62
7
70
4
75
6
66
1
40
0
41
0
0
VERTEX
8
2
10
1.733917
20
2.984032
70
16
0
VERTEX
8
2
10
1.721627
20
2.955374
70
16
0
VERTEX
8
2
10
1.718979
20
2.92482
70
16
0
VERTEX
8
2
10
1.724275
20
2.884083
70
16
0
VERTEX
8
2
10
1.734867
20
2.850135
70
16
0
VERTEX
8
2
10
1.761347
20
2.802608
70
16
0
VERTEX
8
2
10
1.790475
20
2.778845
70
16
0
VERTEX
8
2
10
1.8249
20
2.761871
70
16
0
VERTEX
8
2
10
1.856362
20
2.751787
70
16
0
VERTEX
8
2
10
1.733917
20
2.984032
70
8
0
VERTEX
8
2
10
1.729804
20
2.973888
70
8
0
VERTEX
8
2
10
1.726608
20
2.964852
70
8
0
VERTEX
8
2
10
1.72422
20
2.956776
70
8
0
VERTEX
8
2
10
1.722529
20
2.949514
70
8
0
VERTEX
8
2
10
1.721424
20
2.942919
70
8
0
VERTEX
8
2
10
1.720795
20
2.936845
70
8
0
VERTEX
8
2
10
1.720531
20
2.931144
70
8
0
VERTEX
8
2
10
1.720523
20
2.925669
70
8
0
VERTEX
8
2
10
1.720677
20
2.920299
70
8
0
VERTEX
8
2
10
1.720968
20
2.915012
70
8
0
VERTEX
8
2
10
1.721388
20
2.909811
70
8
0
VERTEX
8
2
10
1.72193
20
2.904699
70
8
0
VERTEX
8
2
10
1.722586
20
2.89968
70
8
0
VERTEX
8
2
10
1.723347
20
2.894758
70
8
0
VERTEX
8
2
10
1.724207
20
2.889935
70
8
0
VERTEX
8
2
10
1.725157
20
2.885215
70
8
0
VERTEX
8
2
10
1.726195
20
2.880593
70
8
0
VERTEX
8
2
10
1.727336
20
2.876038
70
8
0
VERTEX
8
2
10
1.728602
20
2.871509
70
8
0
VERTEX
8
2
10
1.730012
20
2.866968
70
8
0
VERTEX
8
2
10
1.731588
20
2.862373
70
8
0
VERTEX
8
2
10
1.73335
20
2.857685
70
8
0
VERTEX
8
2
10
1.735318
20
2.852865
70
8
0
VERTEX
8
2
10
1.737515
20
2.847872
70
8
0
VERTEX
8
2
10
1.739952
20
2.842686
70
8
0
VERTEX
8
2
10
1.742611
20
2.83736
70
8
0
VERTEX
8
2
10
1.745467
20
2.831969
70
8
0
VERTEX
8
2
10
1.748493
20
2.826584
70
8
0
VERTEX
8
2
10
1.751664
20
2.821278
70
8
0
VERTEX
8
2
10
1.754954
20
2.816125
70
8
0
VERTEX
8
2
10
1.758338
20
2.811198
70
8
0
VERTEX
8
2
10
1.761788
20
2.806569
70
8
0
VERTEX
8
2
10
1.765291
20
2.80229
70
8
0
VERTEX
8
2
10
1.768874
20
2.798334
70
8
0
VERTEX
8
2
10
1.772576
20
2.794649
70
8
0
VERTEX
8
2
10
1.776435
20
2.791186
70
8
0
VERTEX
8
2
10
1.780491
20
2.787896
70
8
0
VERTEX
8
2
10
1.784783
20
2.784728
70
8
0
VERTEX
8
2
10
1.789348
20
2.781633
70
8
0
VERTEX
8
2
10
1.794227
20
2.778562
70
8
0
VERTEX
8
2
10
1.799471
20
2.775469
70
8
0
VERTEX
8
2
10
1.80519
20
2.772335
70
8
0
VERTEX
8
2
10
1.811506
20
2.769143
70
8
0
VERTEX
8
2
10
1.818544
20
2.765879
70
8
0
VERTEX
8
2
10
1.826425
20
2.762527
70
8
0
VERTEX
8
2
10
1.835273
20
2.759071
70
8
0
VERTEX
8
2
10
1.845211
20
2.755496
70
8
0
VERTEX
8
2
10
1.856362
20
2.751787
70
8
0
SEQEND
8
2
0
POLYLINE
8
2
62
7
70
4
75
6
66
1
40
0
41
0
0
VERTEX
8
2
10
1.733917
20
2.984032
70
16
0
VERTEX
8
2
10
1.736719
20
2.989822
70
16
0
VERTEX
8
2
10
1.739682
20
2.994435
70
16
0
VERTEX
8
2
10
1.743281
20
2.998235
70
16
0
VERTEX
8
2
10
1.744542
20
2.99923
70
16
0
VERTEX
8
2
10
1.733917
20
2.984032
70
8
0
VERTEX
8
2
10
1.734909
20
2.986047
70
8
0
VERTEX
8
2
10
1.735794
20
2.987773
70
8
0
VERTEX
8
2
10
1.73659
20
2.989249
70
8
0
VERTEX
8
2
10
1.737314
20
2.990515
70
8
0
VERTEX
8
2
10
1.737984
20
2.991607
70
8
0
VERTEX
8
2
10
1.738617
20
2.992565
70
8
0
VERTEX
8
2
10
1.73923
20
2.993427
70
8
0
VERTEX
8
2
10
1.739841
20
2.994232
70
8
0
VERTEX
8
2
10
1.740462
20
2.995009
70
8
0
VERTEX
8
2
10
1.74109
20
2.99576
70
8
0
VERTEX
8
2
10
1.741717
20
2.996475
70
8
0
VERTEX
8
2
10
1.742333
20
2.997146
70
8
0
VERTEX
8
2
10
1.742933
20
2.997765
70
8
0
VERTEX
8
2
10
1.743506
20
2.998325
70
8
0
VERTEX
8
2
10
1.744045
20
2.998815
70
8
0
VERTEX
8
2
10
1.744542
20
2.99923
70
8
0
SEQEND
8
2
0
POLYLINE
8
2
62
7
70
4
75
6
66
1
40
0
41
0
0
VERTEX
8
2
10
1.717412
20
2.964494
70
16
0
VERTEX
8
2
10
1.728205
20
2.987606
70
16
0
VERTEX
8
2
10
1.746724
20
3.001851
70
16
0
VERTEX
8
2
10
1.774503
20
3.016096
70
16
0
VERTEX
8
2
10
1.796726
20
3.018471
70
16
0
VERTEX
8
2
10
1.807495
20
3.018031
70
16
0
VERTEX
8
2
10
1.717412
20
2.964494
70
8
0
VERTEX
8
2
10
1.721391
20
2.97244
70
8
0
VERTEX
8
2
10
1.725243
20
2.979061
70
8
0
VERTEX
8
2
10
1.728988
20
2.98453
70
8
0
VERTEX
8
2
10
1.732643
20
2.98902
70
8
0
VERTEX
8
2
10
1.736226
20
2.992705
70
8
0
VERTEX
8
2
10
1.739755
20
2.995759
70
8
0
VERTEX
8
2
10
1.743249
20
2.998354
70
8
0
VERTEX
8
2
10
1.746724
20
3.000664
70
8
0
VERTEX
8
2
10
1.750198
20
3.002833
70
8
0
VERTEX
8
2
10
1.753683
20
3.004884
70
8
0
VERTEX
8
2
10
1.75719
20
3.006809
70
8
0
VERTEX
8
2
10
1.760729
20
3.008603
70
8
0
VERTEX
8
2
10
1.764312
20
3.010257
70
8
0
VERTEX
8
2
10
1.767949
20
3.011765
70
8
0
VERTEX
8
2
10
1.771651
20
3.013121
70
8
0
VERTEX
8
2
10
1.775429
20
3.014316
70
8
0
VERTEX
8
2
10
1.77929
20
3.015345
70
8
0
VERTEX
8
2
10
1.783222
20
3.01621
70
8
0
VERTEX
8
2
10
1.787212
20
3.016911
70
8
0
VERTEX
8
2
10
1.791243
20
3.017451
70
8
0
VERTEX
8
2
10
1.795302
20
3.017831
70
8
0
VERTEX
8
2
10
1.799374
20
3.018053
70
8
0
VERTEX
8
2
10
1.803443
20
3.018119
70
8
0
VERTEX
8
2
10
1.807495
20
3.018031
70
8
0
SEQEND
8
2
0
LINE
8
2
62
1
10
2.844955
20
1.133185
11
4.134865
21
2.215811
0
LINE
8
2
62
1
10
2.79993
20
1.204109
11
4.10864
21
2.302513
0
LINE
8
2
62
5
10
3.968481
20
2.095811
11
2.867393
21
1.095025
0
ARC
8
5
62
7
10
4.752594
20
1.101019
40
0.9363798
50
122.2902
51
112.92
0
ARC
8
5
62
7
10
4.752594
20
1.101019
40
0.8914266
50
123.0842
51
106.2565
0
POLYLINE
8
2
62
5
70
0
66
1
40
0
41
0
0
VERTEX
8
2
10
4.395305
20
1.942057
0
VERTEX
8
2
10
4.494971
20
1.979849
0
VERTEX
8
2
10
4.506733
20
1.946949
0
VERTEX
8
2
10
4.450964
20
1.925451
0
SEQEND
8
2
0
LINE
8
2
62
7
10
4.34024
20
1.868562
11
4.240174
21
2.161141
0
LINE
8
2
62
7
10
4.349245
20
1.619003
11
4.167706
21
2.137995
0
POLYLINE
8
5
62
7
70
1
66
1
40
0
41
0
0
VERTEX
8
5
10
4.069134
20
1.938748
0
VERTEX
8
5
10
4.079924
20
1.926013
0
VERTEX
8
5
10
4.099308
20
1.940701
0
VERTEX
8
5
10
4.107067
20
1.93092
0
VERTEX
8
5
10
4.055428
20
1.888836
0
VERTEX
8
5
10
4.036136
20
1.909577
0
SEQEND
8
5
0
POLYLINE
8
5
62
7
70
1
66
1
40
0
41
0
0
VERTEX
8
5
10
4.199303
20
1.976004
0
VERTEX
8
5
10
4.100956
20
1.905313
0
VERTEX
8
5
10
4.112737
20
1.888923
0
VERTEX
8
5
10
4.211084
20
1.959614
0
SEQEND
8
5
0
POLYLINE
8
5
62
7
70
0
66
1
40
0
41
0
0
VERTEX
8
5
10
4.21199
20
1.958353
0
VERTEX
8
5
10
4.213803
20
1.955831
0
VERTEX
8
5
10
4.115457
20
1.88514
0
VERTEX
8
5
10
4.112737
20
1.888923
0
SEQEND
8
5
0
ARC
8
5
62
7
10
4.727314
20
1.136188
40
1.028951
50
127.3063
51
129.343
0
POLYLINE
8
2
62
5
70
0
66
1
40
0
41
0
0
VERTEX
8
2
10
4.391252
20
1.848251
0
VERTEX
8
2
10
4.342066
20
1.994928
0
VERTEX
8
2
10
4.374144
20
2.005894
0
VERTEX
8
2
10
4.422261
20
1.860588
0
SEQEND
8
2
0
CIRCLE
8
2
62
5
10
4.426538
20
1.927758
40
0.02445028
0
POLYLINE
8
2
62
5
70
0
66
1
40
0
41
0
0
VERTEX
8
2
10
4.343135
20
1.922275
0
VERTEX
8
2
10
4.338858
20
1.934612
0
VERTEX
8
2
10
4.359827
20
1.942564
0
SEQEND
8
2
0
ARC
8
5
62
7
10
4.752594
20
1.101019
40
0.9363798
50
114.9659
51
117.5876
0
LINE
8
5
62
7
10
4.67753
20
1.216421
11
4.703752
21
1.988587
0
LINE
8
5
62
7
10
4.696235
20
1.192812
11
4.891353
21
1.978602
0
POLYLINE
8
5
62
7
70
1
66
1
40
0
41
0
0
VERTEX
8
5
10
5.436571
20
1.938325
0
VERTEX
8
5
10
5.425772
20
1.925597
0
VERTEX
8
5
10
5.406398
20
1.940298
0
VERTEX
8
5
10
5.398632
20
1.930521
0
VERTEX
8
5
10
5.450245
20
1.888406
0
VERTEX
8
5
10
5.46955
20
1.909134
0
SEQEND
8
5
0
POLYLINE
8
5
62
7
70
1
66
1
40
0
41
0
0
VERTEX
8
5
10
5.406104
20
1.903923
0
VERTEX
8
5
10
5.307799
20
1.974671
0
VERTEX
8
5
10
5.296008
20
1.958287
0
VERTEX
8
5
10
5.394313
20
1.887539
0
SEQEND
8
5
0
POLYLINE
8
5
62
7
70
0
66
1
40
0
41
0
0
VERTEX
8
5
10
5.393406
20
1.886278
0
VERTEX
8
5
10
5.391592
20
1.883758
0
VERTEX
8
5
10
5.293287
20
1.954506
0
VERTEX
8
5
10
5.296008
20
1.958287
0
SEQEND
8
5
0
ARC
8
5
62
7
10
4.777894
20
1.136173
40
1.028951
50
50.59979
51
52.61917
0
LINE
8
5
62
7
10
4.685493
20
1.053353
11
4.007637
21
1.585996
0
LINE
8
5
62
7
10
4.673874
20
1.075457
11
4.126529
21
1.731454
0
LINE
8
5
62
7
10
4.746062
20
1.018971
11
3.902504
21
0.8411872
0
LINE
8
5
62
7
10
4.721656
20
1.024253
11
3.867304
21
1.025726
0
LINE
8
5
62
7
10
4.611612
20
1.214245
11
3.901142
21
1.367215
0
LINE
8
5
62
7
10
4.641144
20
1.181167
11
3.868649
21
1.183589
0
LINE
8
5
62
7
10
4.67512
20
1.143202
11
4.001883
21
0.6190831
0
LINE
8
5
62
7
10
4.679706
20
1.138368
11
4.121813
21
0.4762859
0
LINE
8
5
62
7
10
4.792889
20
1.028725
11
4.255062
21
0.3649015
0
ARC
8
5
62
7
10
4.74007
20
1.059556
40
1.028951
50
245.5972
51
246.9746
0
POLYLINE
8
5
62
7
70
1
66
1
40
0
41
0
0
VERTEX
8
5
10
4.289781
20
0.1971759
0
VERTEX
8
5
10
4.280076
20
0.1771806
0
VERTEX
8
5
10
4.331546
20
0.1521982
0
VERTEX
8
5
10
4.341252
20
0.172194
0
SEQEND
8
5
0
POLYLINE
8
5
62
7
70
0
66
1
40
0
41
0
0
VERTEX
8
5
10
4.290667
20
0.1984057
0
VERTEX
8
5
10
4.292933
20
0.203076
0
VERTEX
8
5
10
4.343936
20
0.1783202
0
VERTEX
8
5
10
4.34167
20
0.1736499
0
SEQEND
8
5
0
POLYLINE
8
5
62
7
70
1
66
1
40
0
41
0
0
VERTEX
8
5
10
4.289789
20
0.1971723
0
VERTEX
8
5
10
4.280084
20
0.1771766
0
VERTEX
8
5
10
4.331554
20
0.1521951
0
VERTEX
8
5
10
4.34126
20
0.1721905
0
SEQEND
8
5
0
POLYLINE
8
5
62
7
70
0
66
1
40
0
41
0
0
VERTEX
8
5
10
4.290674
20
0.1984017
0
VERTEX
8
5
10
4.292941
20
0.2030717
0
VERTEX
8
5
10
4.343944
20
0.1783166
0
VERTEX
8
5
10
4.341678
20
0.1736468
0
SEQEND
8
5
0
POLYLINE
8
5
62
7
70
0
66
1
40
0
41
0
0
VERTEX
8
5
10
3.816546
20
0.7123157
0
VERTEX
8
5
10
3.819481
20
0.7133307
0
VERTEX
8
5
10
3.779896
20
0.8277959
0
VERTEX
8
5
10
3.775494
20
0.8262731
0
SEQEND
8
5
0
POLYLINE
8
5
62
7
70
1
66
1
40
0
41
0
0
VERTEX
8
5
10
3.796001
20
0.7052111
0
VERTEX
8
5
10
3.756417
20
0.8196763
0
VERTEX
8
5
10
3.775494
20
0.8262731
0
VERTEX
8
5
10
3.815079
20
0.7118081
0
SEQEND
8
5
0
POLYLINE
8
5
62
7
70
0
66
1
40
0
41
0
0
VERTEX
8
5
10
3.76208
20
0.7277738
0
VERTEX
8
5
10
3.766987
20
0.7294704
0
VERTEX
8
5
10
3.748458
20
0.783051
0
VERTEX
8
5
10
3.743551
20
0.7813539
0
SEQEND
8
5
0
POLYLINE
8
5
62
7
70
1
66
1
40
0
41
0
0
VERTEX
8
5
10
3.760755
20
0.7270402
0
VERTEX
8
5
10
3.739749
20
0.7197763
0
VERTEX
8
5
10
3.721051
20
0.773847
0
VERTEX
8
5
10
3.742055
20
0.7811114
0
SEQEND
8
5
0
INSERT
8
1
2
MTNBIKE-G1
10
0
20
0
0
POLYLINE
8
5
62
7
70
1
66
1
40
0
41
0
0
VERTEX
8
5
10
4.196282
20
0.1739664
0
VERTEX
8
5
10
4.204603
20
0.1884368
0
VERTEX
8
5
10
4.184212
20
0.2016892
0
VERTEX
8
5
10
4.190782
20
0.2123074
0
VERTEX
8
5
10
4.247883
20
0.1779996
0
VERTEX
8
5
10
4.234916
20
0.1528173
0
SEQEND
8
5
0
POLYLINE
8
5
62
7
70
0
66
1
40
0
41
0
0
VERTEX
8
5
10
4.235517
20
0.1536633
0
VERTEX
8
5
10
4.239303
20
0.1547901
0
VERTEX
8
5
10
4.252875
20
0.1808176
0
VERTEX
8
5
10
4.194511
20
0.21475
0
VERTEX
8
5
10
4.191384
20
0.213153
0
SEQEND
8
5
0
POLYLINE
8
5
62
7
70
1
66
1
40
0
41
0
0
VERTEX
8
5
10
3.932562
20
0.4293398
0
VERTEX
8
5
10
3.914986
20
0.4157369
0
VERTEX
8
5
10
3.879968
20
0.4609818
0
VERTEX
8
5
10
3.897545
20
0.4745852
0
SEQEND
8
5
0
POLYLINE
8
5
62
7
70
0
66
1
40
0
41
0
0
VERTEX
8
5
10
3.933584
20
0.430459
0
VERTEX
8
5
10
3.937689
20
0.4336364
0
VERTEX
8
5
10
3.902989
20
0.478471
0
VERTEX
8
5
10
3.898885
20
0.4752933
0
SEQEND
8
5
0
POLYLINE
8
5
62
7
70
1
66
1
40
0
41
0
0
VERTEX
8
5
10
3.972941
20
0.4199366
0
VERTEX
8
5
10
3.898811
20
0.5157177
0
VERTEX
8
5
10
3.914774
20
0.5280716
0
VERTEX
8
5
10
3.988904
20
0.4322907
0
SEQEND
8
5
0
POLYLINE
8
5
62
7
70
0
66
1
40
0
41
0
0
VERTEX
8
5
10
3.990132
20
0.4332415
0
VERTEX
8
5
10
3.992588
20
0.4351422
0
VERTEX
8
5
10
3.918458
20
0.5309233
0
VERTEX
8
5
10
3.914774
20
0.5280716
0
SEQEND
8
5
0
ARC
8
5
62
7
10
5.017814
20
1.373753
40
1.451947
50
224.0377
51
225.3654
0
POLYLINE
8
5
62
7
70
1
66
1
40
0
41
0
0
VERTEX
8
5
10
4.087396
20
0.2487163
0
VERTEX
8
5
10
4.097909
20
0.2616812
0
VERTEX
8
5
10
4.117605
20
0.247415
0
VERTEX
8
5
10
4.125152
20
0.2573618
0
VERTEX
8
5
10
4.072615
20
0.2983197
0
VERTEX
8
5
10
4.053776
20
0.2771672
0
SEQEND
8
5
0
POLYLINE
8
5
62
7
70
0
66
1
40
0
41
0
0
VERTEX
8
5
10
4.054349
20
0.2780336
0
VERTEX
8
5
10
4.05404
20
0.2819714
0
VERTEX
8
5
10
4.073452
20
0.3039898
0
VERTEX
8
5
10
4.126091
20
0.2617196
0
VERTEX
8
5
10
4.125725
20
0.2582277
0
SEQEND
8
5
0
POLYLINE
8
5
62
7
70
1
66
1
40
0
41
0
0
VERTEX
8
5
10
4.006009
20
0.3495561
0
VERTEX
8
5
10
3.99068
20
0.3334614
0
VERTEX
8
5
10
4.032111
20
0.2940048
0
VERTEX
8
5
10
4.047439
20
0.3101002
0
SEQEND
8
5
0
POLYLINE
8
5
62
7
70
1
66
1
40
0
41
0
0
VERTEX
8
5
10
4.177019
20
0.2108966
0
VERTEX
8
5
10
4.164439
20
0.1925733
0
VERTEX
8
5
10
4.117272
20
0.2249545
0
VERTEX
8
5
10
4.129851
20
0.2432779
0
SEQEND
8
5
0
ARC
8
5
62
7
10
4.72808
20
1.065311
40
1.028951
50
237.1688
51
239.1882
0
ARC
8
5
62
7
10
4.72808
20
1.065311
40
1.028951
50
231.8952
51
233.932
0
ARC
8
5
62
7
10
4.72808
20
1.065311
40
1.028951
50
227.9326
51
229.3101
0
POLYLINE
8
5
62
7
70
0
66
1
40
0
41
0
0
VERTEX
8
5
10
4.177649
20
0.2122742
0
VERTEX
8
5
10
4.180588
20
0.2165543
0
VERTEX
8
5
10
4.133848
20
0.2486419
0
VERTEX
8
5
10
4.13091
20
0.2443618
0
SEQEND
8
5
0
POLYLINE
8
5
62
7
70
1
66
1
40
0
41
0
0
VERTEX
8
5
10
4.218339
20
0.2142812
0
VERTEX
8
5
10
4.118489
20
0.2828301
0
VERTEX
8
5
10
4.129913
20
0.2994713
0
VERTEX
8
5
10
4.229764
20
0.2309219
0
SEQEND
8
5
0
POLYLINE
8
5
62
7
70
0
66
1
40
0
41
0
0
VERTEX
8
5
10
4.230643
20
0.2322024
0
VERTEX
8
5
10
4.232401
20
0.2347628
0
VERTEX
8
5
10
4.132549
20
0.3033117
0
VERTEX
8
5
10
4.129913
20
0.2994713
0
SEQEND
8
5
0
POLYLINE
8
5
62
7
70
0
66
1
40
0
41
0
0
VERTEX
8
5
10
4.007226
20
0.3504578
0
VERTEX
8
5
10
4.010806
20
0.3542172
0
VERTEX
8
5
10
4.05186
20
0.3151194
0
VERTEX
8
5
10
4.048281
20
0.3113598
0
SEQEND
8
5
0
POLYLINE
8
5
62
7
70
1
66
1
40
0
41
0
0
VERTEX
8
5
10
4.037338
20
0.3802296
0
VERTEX
8
5
10
4.022023
20
0.3641223
0
VERTEX
8
5
10
4.063486
20
0.3246998
0
VERTEX
8
5
10
4.078801
20
0.3408073
0
SEQEND
8
5
0
POLYLINE
8
5
62
7
70
0
66
1
40
0
41
0
0
VERTEX
8
5
10
4.038555
20
0.381133
0
VERTEX
8
5
10
4.042132
20
0.384895
0
VERTEX
8
5
10
4.083218
20
0.3458299
0
VERTEX
8
5
10
4.079642
20
0.3420679
0
SEQEND
8
5
0
POLYLINE
8
5
62
7
70
1
66
1
40
0
41
0
0
VERTEX
8
5
10
4.037344
20
0.3802239
0
VERTEX
8
5
10
4.022029
20
0.3641161
0
VERTEX
8
5
10
4.063492
20
0.3246941
0
VERTEX
8
5
10
4.078808
20
0.3408016
0
SEQEND
8
5
0
POLYLINE
8
5
62
7
70
0
66
1
40
0
41
0
0
VERTEX
8
5
10
4.03856
20
0.3811268
0
VERTEX
8
5
10
4.042138
20
0.384889
0
VERTEX
8
5
10
4.083225
20
0.3458242
0
VERTEX
8
5
10
4.079648
20
0.3420621
0
SEQEND
8
5
0
POLYLINE
8
5
62
7
70
1
66
1
40
0
41
0
0
VERTEX
8
5
10
3.93962
20
0.3882898
0
VERTEX
8
5
10
3.951965
20
0.3995256
0
VERTEX
8
5
10
3.936598
20
0.4183747
0
VERTEX
8
5
10
3.946098
20
0.4264776
0
VERTEX
8
5
10
3.989986
20
0.3763629
0
VERTEX
8
5
10
3.969944
20
0.3563475
0
SEQEND
8
5
0
POLYLINE
8
5
62
7
70
0
66
1
40
0
41
0
0
VERTEX
8
5
10
3.970775
20
0.356969
0
VERTEX
8
5
10
3.974724
20
0.3568851
0
VERTEX
8
5
10
3.9956
20
0.3775209
0
VERTEX
8
5
10
3.950396
20
0.4276642
0
VERTEX
8
5
10
3.94693
20
0.4270989
0
SEQEND
8
5
0
ARC
8
5
62
7
10
4.718342
20
1.074509
40
1.028951
50
219.3771
51
221.3965
0
ARC
8
5
62
7
10
5.296047
20
1.332244
40
1.661297
50
204.3197
51
205.5609
0
POLYLINE
8
5
62
7
70
1
66
1
40
0
41
0
0
VERTEX
8
5
10
3.808011
20
0.6214852
0
VERTEX
8
5
10
3.788497
20
0.6108436
0
VERTEX
8
5
10
3.81589
20
0.5606145
0
VERTEX
8
5
10
3.835403
20
0.5712566
0
SEQEND
8
5
0
POLYLINE
8
5
62
7
70
0
66
1
40
0
41
0
0
VERTEX
8
5
10
3.809445
20
0.6219718
0
VERTEX
8
5
10
3.814003
20
0.6244573
0
VERTEX
8
5
10
3.841147
20
0.5746848
0
VERTEX
8
5
10
3.83659
20
0.5721986
0
SEQEND
8
5
0
POLYLINE
8
5
62
7
70
1
66
1
40
0
41
0
0
VERTEX
8
5
10
3.847214
20
0.6411185
0
VERTEX
8
5
10
3.82771
20
0.6304612
0
VERTEX
8
5
10
3.855144
20
0.5802545
0
VERTEX
8
5
10
3.874649
20
0.590912
0
SEQEND
8
5
0
POLYLINE
8
5
62
7
70
0
66
1
40
0
41
0
0
VERTEX
8
5
10
3.848649
20
0.6416067
0
VERTEX
8
5
10
3.853205
20
0.6440961
0
VERTEX
8
5
10
3.880389
20
0.594345
0
VERTEX
8
5
10
3.875834
20
0.5918557
0
SEQEND
8
5
0
POLYLINE
8
5
62
7
70
1
66
1
40
0
41
0
0
VERTEX
8
5
10
3.847219
20
0.6411113
0
VERTEX
8
5
10
3.827714
20
0.6304531
0
VERTEX
8
5
10
3.855148
20
0.5802473
0
VERTEX
8
5
10
3.874653
20
0.5909049
0
SEQEND
8
5
0
POLYLINE
8
5
62
7
70
0
66
1
40
0
41
0
0
VERTEX
8
5
10
3.848653
20
0.6415994
0
VERTEX
8
5
10
3.853208
20
0.6440887
0
VERTEX
8
5
10
3.880394
20
0.5943374
0
VERTEX
8
5
10
3.875839
20
0.5918481
0
SEQEND
8
5
0
ARC
8
5
62
7
10
4.71166
20
1.086863
40
1.028951
50
200.7158
51
202.7352
0
POLYLINE
8
5
62
7
70
0
66
1
40
0
41
0
0
VERTEX
8
5
10
3.773802
20
0.6462476
0
VERTEX
8
5
10
3.777516
20
0.6449043
0
VERTEX
8
5
10
3.803897
20
0.6577753
0
VERTEX
8
5
10
3.777114
20
0.7197465
0
VERTEX
8
5
10
3.77365
20
0.7203197
0
SEQEND
8
5
0
POLYLINE
8
5
62
7
70
1
66
1
40
0
41
0
0
VERTEX
8
5
10
3.754307
20
0.6858899
0
VERTEX
8
5
10
3.769598
20
0.6925849
0
VERTEX
8
5
10
3.76107
20
0.7153603
0
VERTEX
8
5
10
3.772664
20
0.7199976
0
VERTEX
8
5
10
3.798208
20
0.6584744
0
VERTEX
8
5
10
3.772815
20
0.6459245
0
SEQEND
8
5
0
POLYLINE
8
5
62
7
70
1
66
1
40
0
41
0
0
VERTEX
8
5
10
3.858782
20
0.4927356
0
VERTEX
8
5
10
3.872754
20
0.5018682
0
VERTEX
8
5
10
3.887148
20
0.4822664
0
VERTEX
8
5
10
3.897374
20
0.4894311
0
VERTEX
8
5
10
3.859865
20
0.5444831
0
VERTEX
8
5
10
3.835464
20
0.5300989
0
SEQEND
8
5
0
POLYLINE
8
5
62
7
70
0
66
1
40
0
41
0
0
VERTEX
8
5
10
3.836274
20
0.5307488
0
VERTEX
8
5
10
3.837183
20
0.5345928
0
VERTEX
8
5
10
3.862394
20
0.5496265
0
VERTEX
8
5
10
3.8996
20
0.4932935
0
VERTEX
8
5
10
3.898184
20
0.4900808
0
SEQEND
8
5
0
ARC
8
5
62
7
10
5.476573
20
1.498076
40
1.89708
50
209.4376
51
210.452
0
ARC
8
5
62
7
10
4.718342
20
1.074509
40
1.028951
50
214.1034
51
216.1402
0
ARC
8
5
62
7
10
4.956911
20
1.133084
40
1.204887
50
233.4402
51
234.8977
0
POLYLINE
8
5
62
7
70
1
66
1
40
0
41
0
0
VERTEX
8
5
10
4.269237
20
0.1584417
0
VERTEX
8
5
10
4.259515
20
0.1384545
0
VERTEX
8
5
10
4.310965
20
0.1134299
0
VERTEX
8
5
10
4.320686
20
0.1334176
0
SEQEND
8
5
0
POLYLINE
8
5
62
7
70
0
66
1
40
0
41
0
0
VERTEX
8
5
10
4.270123
20
0.1596701
0
VERTEX
8
5
10
4.272393
20
0.164339
0
VERTEX
8
5
10
4.323376
20
0.139542
0
VERTEX
8
5
10
4.321106
20
0.1348735
0
SEQEND
8
5
0
ARC
8
3
62
7
10
2.821892
20
1.117149
40
0.01483664
50
344.5751
51
65.648
0
ARC
8
3
62
7
10
2.850431
20
1.113807
40
0.01417357
50
346.7933
51
244.2366
0
ARC
8
1
62
7
10
2.596503
20
0.9850539
40
0.2112193
50
10.40193
51
14.12626
0
ARC
8
3
62
7
10
2.899849
20
1.035236
40
0.01483664
50
148.1052
51
229.1781
0
ARC
8
3
62
7
10
2.854379
20
1.027119
40
0.01483664
50
331.0635
51
52.13639
0
ARC
8
1
62
7
10
2.596503
20
0.9850539
40
0.2112193
50
351.2881
51
353.9443
0
ARC
8
1
62
7
10
2.596503
20
0.9850539
40
0.2112193
50
0.3410021
51
3.947396
0
LINE
8
1
62
7
10
2.80147
20
0.9634174
11
2.806101
21
0.962818
0
LINE
8
1
62
7
10
2.802605
20
0.986173
11
2.807273
21
0.986308
0
LINE
8
1
62
7
10
2.802097
20
0.9995569
11
2.806762
21
0.9997758
0
LINE
8
1
62
7
10
2.79924
20
1.022161
11
2.803813
21
1.023109
0
ARC
8
1
62
7
10
2.798296
20
0.8842317
40
0.009784705
50
320.7333
51
76.48847
0
ARC
8
1
62
7
10
2.820457
20
0.9580289
40
0.009784705
50
250.0828
51
5.837959
0
CIRCLE
8
3
62
7
10
2.880298
20
1.014108
40
0.004213074
0
ARC
8
3
62
7
10
2.880165
20
1.014085
40
0.01417357
50
149.978
51
49.89709
0
CIRCLE
8
3
62
7
10
2.881722
20
0.9792262
40
0.004213074
0
ARC
8
3
62
7
10
2.881587
20
0.9792384
40
0.01417357
50
314.7777
51
214.6968
0
ARC
8
3
62
7
10
2.90293
20
0.9597617
40
0.01483664
50
135.4967
51
216.5696
0
ARC
8
3
62
7
10
2.85695
20
0.9641455
40
0.01483664
50
312.5384
51
33.61131
0
CIRCLE
8
3
62
7
10
2.878474
20
0.9447328
40
0.004213074
0
ARC
8
3
62
7
10
2.87834
20
0.9447478
40
0.01417357
50
134.5117
51
31.95489
0
ARC
8
3
62
7
10
2.897319
20
0.9230229
40
0.01483664
50
130.1546
51
211.2275
0
ARC
8
3
62
7
10
2.852401
20
0.9324671
40
0.01483664
50
313.1129
51
34.18581
0
CIRCLE
8
3
62
7
10
2.872153
20
0.9115602
40
0.004213074
0
ARC
8
3
62
7
10
2.872025
20
0.9116038
40
0.01417357
50
301.0193
51
200.9384
0
ARC
8
3
62
7
10
2.888122
20
0.8876101
40
0.01483664
50
121.7383
51
202.8112
0
ARC
8
3
62
7
10
2.844504
20
0.9028035
40
0.01483664
50
298.78
51
19.85291
0
CIRCLE
8
3
62
7
10
2.860794
20
0.8788287
40
0.004213074
0
ARC
8
3
62
7
10
2.860667
20
0.8788754
40
0.01417357
50
120.7533
51
18.19649
0
ARC
8
3
62
7
10
2.873935
20
0.85326
40
0.01483664
50
116.3962
51
197.4691
0
ARC
8
3
62
7
10
2.832552
20
0.873116
40
0.01483664
50
299.3545
51
20.42742
0
ARC
8
3
62
7
10
2.852587
20
0.9333767
40
0.01483664
50
302.7927
51
23.86565
0
CIRCLE
8
3
62
7
10
2.845965
20
0.8466613
40
0.004213074
0
ARC
8
3
62
7
10
2.845852
20
0.8467347
40
0.01417357
50
286.9284
51
186.8475
0
ARC
8
3
62
7
10
2.855624
20
0.8195438
40
0.01483664
50
107.6473
51
188.7203
0
ARC
8
3
62
7
10
2.817017
20
0.8448996
40
0.01483664
50
284.6891
51
5.76198
0
CIRCLE
8
3
62
7
10
2.82698
20
0.8176801
40
0.004213074
0
ARC
8
3
62
7
10
2.826868
20
0.8177561
40
0.01417357
50
106.6623
51
4.105562
0
ARC
8
3
62
7
10
2.798197
20
0.8190152
40
0.01483664
50
335.033
51
6.336484
0
ARC
8
3
62
7
10
2.8335
20
0.7896814
40
0.01483664
50
102.3053
51
140.403
0
ARC
8
3
62
7
10
2.903932
20
0.9976851
40
0.01483664
50
139.4687
51
220.5416
0
ARC
8
3
62
7
10
2.857822
20
0.9957229
40
0.01483664
50
323.5663
51
44.63916
0
LINE
8
1
62
7
10
2.796376
20
1.035356
11
2.80093
21
1.036389
0
ARC
8
3
62
7
10
2.891119
20
1.071883
40
0.01483664
50
153.5421
51
234.6151
0
ARC
8
3
62
7
10
2.847142
20
1.058737
40
0.01483664
50
330.5839
51
51.65677
0
CIRCLE
8
3
62
7
10
2.864715
20
1.082245
40
0.004213074
0
ARC
8
3
62
7
10
2.864591
20
1.082191
40
0.01417357
50
164.0514
51
63.97053
0
ARC
8
3
62
7
10
2.878541
20
1.107493
40
0.01483664
50
162.1786
51
243.2516
0
ARC
8
3
62
7
10
2.83641
20
1.088564
40
0.01483664
50
345.1369
51
66.20983
0
CIRCLE
8
3
62
7
10
2.850553
20
1.113865
40
0.004213074
0
CIRCLE
8
3
62
7
10
2.87425
20
1.048222
40
0.004213074
0
ARC
8
3
62
7
10
2.874118
20
1.048195
40
0.01417357
50
332.7199
51
230.1631
0
LINE
8
2
62
5
10
2.819762
20
1.051733
11
2.802787
21
1.036304
0
ARC
8
3
62
7
10
2.816231
20
1.199664
40
0.01483664
50
186.131
51
267.2039
0
ARC
8
3
62
7
10
2.861386
20
1.140538
40
0.01483664
50
167.5334
51
248.6063
0
CIRCLE
8
3
62
7
10
2.833259
20
1.144209
40
0.004213074
0
ARC
8
3
62
7
10
2.833153
20
1.144126
40
0.01417357
50
178.0426
51
77.96175
0
ARC
8
3
62
7
10
2.840572
20
1.172051
40
0.01483664
50
176.1699
51
257.2428
0
ARC
8
3
62
7
10
2.804267
20
1.143496
40
0.01483664
50
359.1281
51
80.20105
0
CIRCLE
8
3
62
7
10
2.811873
20
1.171466
40
0.004213074
0
ARC
8
3
62
7
10
2.811769
20
1.17138
40
0.01417357
50
0.7845415
51
258.2278
0
ARC
8
5
62
7
10
4.709282
20
1.100752
40
1.028951
50
176.6939
51
178.7133
0
POLYLINE
8
5
62
7
70
1
66
1
40
0
41
0
0
VERTEX
8
5
10
3.718815
20
1.156087
0
VERTEX
8
5
10
3.719559
20
1.034973
0
VERTEX
8
5
10
3.739744
20
1.035097
0
VERTEX
8
5
10
3.738999
20
1.156211
0
SEQEND
8
5
0
POLYLINE
8
5
62
7
70
0
66
1
40
0
41
0
0
VERTEX
8
5
10
3.740553
20
1.156221
0
VERTEX
8
5
10
3.743658
20
1.15624
0
VERTEX
8
5
10
3.744403
20
1.035125
0
VERTEX
8
5
10
3.739744
20
1.035097
0
SEQEND
8
5
0
POLYLINE
8
5
62
7
70
0
66
1
40
0
41
0
0
VERTEX
8
5
10
3.679613
20
0.9845628
0
VERTEX
8
5
10
3.682699
20
0.9820985
0
VERTEX
8
5
10
3.711816
20
0.985819
0
VERTEX
8
5
10
3.706347
20
1.053108
0
VERTEX
8
5
10
3.703251
20
1.054763
0
SEQEND
8
5
0
POLYLINE
8
5
62
7
70
1
66
1
40
0
41
0
0
VERTEX
8
5
10
3.673877
20
1.028366
0
VERTEX
8
5
10
3.690508
20
1.029798
0
VERTEX
8
5
10
3.689744
20
1.054105
0
VERTEX
8
5
10
3.702213
20
1.054774
0
VERTEX
8
5
10
3.706653
20
0.9883071
0
VERTEX
8
5
10
3.678574
20
0.9845747
0
SEQEND
8
5
0
ARC
8
5
62
7
10
5.048848
20
1.147327
40
1.370496
50
190.7396
51
192.1062
0
POLYLINE
8
5
62
7
70
0
66
1
40
0
41
0
0
VERTEX
8
5
10
3.715864
20
0.8945023
0
VERTEX
8
5
10
3.720969
20
0.8954472
0
VERTEX
8
5
10
3.710654
20
0.9511937
0
VERTEX
8
5
10
3.705549
20
0.9502498
0
SEQEND
8
5
0
POLYLINE
8
5
62
7
70
1
66
1
40
0
41
0
0
VERTEX
8
5
10
3.714444
20
0.8939757
0
VERTEX
8
5
10
3.692589
20
0.8899309
0
VERTEX
8
5
10
3.682178
20
0.9461888
0
VERTEX
8
5
10
3.704034
20
0.9502331
0
SEQEND
8
5
0
POLYLINE
8
5
62
7
70
0
66
1
40
0
41
0
0
VERTEX
8
5
10
3.701977
20
0.8539276
0
VERTEX
8
5
10
3.704068
20
0.8572785
0
VERTEX
8
5
10
3.732764
20
0.863455
0
VERTEX
8
5
10
3.749989
20
0.7981786
0
VERTEX
8
5
10
3.747619
20
0.795588
0
SEQEND
8
5
0
POLYLINE
8
5
62
7
70
1
66
1
40
0
41
0
0
VERTEX
8
5
10
3.711139
20
0.8107108
0
VERTEX
8
5
10
3.727298
20
0.8148927
0
VERTEX
8
5
10
3.734663
20
0.7917156
0
VERTEX
8
5
10
3.746644
20
0.7952315
0
VERTEX
8
5
10
3.728723
20
0.8593912
0
VERTEX
8
5
10
3.701001
20
0.8535711
0
SEQEND
8
5
0
ARC
8
5
62
7
10
5.821579
20
1.228299
40
2.148537
50
186.5561
51
187.5094
0
POLYLINE
8
5
62
7
70
0
66
1
40
0
41
0
0
VERTEX
8
5
10
3.758671
20
0.9039904
0
VERTEX
8
5
10
3.763776
20
0.9049307
0
VERTEX
8
5
10
3.753507
20
0.9606868
0
VERTEX
8
5
10
3.748402
20
0.9597467
0
SEQEND
8
5
0
POLYLINE
8
5
62
7
70
0
66
1
40
0
41
0
0
VERTEX
8
5
10
3.758673
20
0.903982
0
VERTEX
8
5
10
3.763779
20
0.9049226
0
VERTEX
8
5
10
3.753508
20
0.9606782
0
VERTEX
8
5
10
3.748403
20
0.9597381
0
SEQEND
8
5
0
ARC
8
5
62
7
10
4.71166
20
1.086863
40
1.028951
50
195.4421
51
197.4789
0
POLYLINE
8
5
62
7
70
1
66
1
40
0
41
0
0
VERTEX
8
5
10
3.75725
20
0.9034649
0
VERTEX
8
5
10
3.735392
20
0.899439
0
VERTEX
8
5
10
3.725028
20
0.9557048
0
VERTEX
8
5
10
3.746887
20
0.9597315
0
SEQEND
8
5
0
POLYLINE
8
5
62
7
70
1
66
1
40
0
41
0
0
VERTEX
8
5
10
3.757252
20
0.9034568
0
VERTEX
8
5
10
3.735394
20
0.8994305
0
VERTEX
8
5
10
3.725029
20
0.9556962
0
VERTEX
8
5
10
3.746888
20
0.9597231
0
SEQEND
8
5
0
POLYLINE
8
5
62
7
70
0
66
1
40
0
41
0
0
VERTEX
8
5
10
3.69433
20
1.123526
0
VERTEX
8
5
10
3.699522
20
1.123558
0
VERTEX
8
5
10
3.69987
20
1.066865
0
VERTEX
8
5
10
3.694679
20
1.066833
0
SEQEND
8
5
0
ARC
8
5
62
7
10
4.709282
20
1.100752
40
1.028951
50
181.9501
51
183.9869
0
POLYLINE
8
5
62
7
70
1
66
1
40
0
41
0
0
VERTEX
8
5
10
3.692836
20
1.123776
0
VERTEX
8
5
10
3.670611
20
1.123639
0
VERTEX
8
5
10
3.670963
20
1.066428
0
VERTEX
8
5
10
3.693188
20
1.066564
0
SEQEND
8
5
0
POLYLINE
8
5
62
7
70
1
66
1
40
0
41
0
0
VERTEX
8
5
10
3.705577
20
1.372264
0
VERTEX
8
5
10
3.721836
20
1.36849
0
VERTEX
8
5
10
3.728617
20
1.391844
0
VERTEX
8
5
10
3.740682
20
1.38863
0
VERTEX
8
5
10
3.724378
20
1.324041
0
VERTEX
8
5
10
3.696519
20
1.329163
0
SEQEND
8
5
0
POLYLINE
8
5
62
7
70
0
66
1
40
0
41
0
0
VERTEX
8
5
10
3.704798
20
1.242734
0
VERTEX
8
5
10
3.709932
20
1.241966
0
VERTEX
8
5
10
3.718317
20
1.298036
0
VERTEX
8
5
10
3.713183
20
1.298804
0
SEQEND
8
5
0
POLYLINE
8
5
62
7
70
1
66
1
40
0
41
0
0
VERTEX
8
5
10
3.703283
20
1.242698
0
VERTEX
8
5
10
3.681301
20
1.245985
0
VERTEX
8
5
10
3.689763
20
1.302569
0
VERTEX
8
5
10
3.711746
20
1.299281
0
SEQEND
8
5
0
POLYLINE
8
5
62
7
70
0
66
1
40
0
41
0
0
VERTEX
8
5
10
3.678265
20
1.204308
0
VERTEX
8
5
10
3.681321
20
1.206811
0
VERTEX
8
5
10
3.710482
20
1.203448
0
VERTEX
8
5
10
3.705838
20
1.136096
0
VERTEX
8
5
10
3.702762
20
1.134404
0
SEQEND
8
5
0
POLYLINE
8
5
62
7
70
0
66
1
40
0
41
0
0
VERTEX
8
5
10
3.697503
20
1.328831
0
VERTEX
8
5
10
3.699678
20
1.325534
0
VERTEX
8
5
10
3.72852
20
1.32008
0
VERTEX
8
5
10
3.7441
20
1.385768
0
VERTEX
8
5
10
3.741666
20
1.388299
0
SEQEND
8
5
0
ARC
8
5
62
7
10
4.71272
20
1.121335
40
1.028951
50
168.5825
51
169.96
0
ARC
8
5
62
7
10
5.488068
20
1.022498
40
1.81064
50
172.985
51
174.1739
0
POLYLINE
8
5
62
7
70
1
66
1
40
0
41
0
0
VERTEX
8
5
10
3.673067
20
1.160438
0
VERTEX
8
5
10
3.689714
20
1.159211
0
VERTEX
8
5
10
3.689248
20
1.134896
0
VERTEX
8
5
10
3.701724
20
1.13438
0
VERTEX
8
5
10
3.70535
20
1.200896
0
VERTEX
8
5
10
3.677227
20
1.204285
0
SEQEND
8
5
0
POLYLINE
8
5
62
7
70
0
66
1
40
0
41
0
0
VERTEX
8
5
10
3.8386
20
1.543258
0
VERTEX
8
5
10
3.843208
20
1.540868
0
VERTEX
8
5
10
3.869307
20
1.591197
0
VERTEX
8
5
10
3.864698
20
1.593587
0
SEQEND
8
5
0
POLYLINE
8
5
62
7
70
0
66
1
40
0
41
0
0
VERTEX
8
5
10
3.838603
20
1.543265
0
VERTEX
8
5
10
3.843212
20
1.540876
0
VERTEX
8
5
10
3.869311
20
1.591205
0
VERTEX
8
5
10
3.864703
20
1.593594
0
SEQEND
8
5
0
POLYLINE
8
5
62
7
70
1
66
1
40
0
41
0
0
VERTEX
8
5
10
3.797534
20
1.562492
0
VERTEX
8
5
10
3.777795
20
1.572708
0
VERTEX
8
5
10
3.805493
20
1.62352
0
VERTEX
8
5
10
3.823831
20
1.613304
0
SEQEND
8
5
0
POLYLINE
8
5
62
7
70
1
66
1
40
0
41
0
0
VERTEX
8
5
10
3.837159
20
1.543722
0
VERTEX
8
5
10
3.817428
20
1.553954
0
VERTEX
8
5
10
3.843766
20
1.604744
0
VERTEX
8
5
10
3.863497
20
1.594512
0
SEQEND
8
5
0
POLYLINE
8
5
62
7
70
1
66
1
40
0
41
0
0
VERTEX
8
5
10
3.837155
20
1.543715
0
VERTEX
8
5
10
3.817424
20
1.553946
0
VERTEX
8
5
10
3.843761
20
1.604736
0
VERTEX
8
5
10
3.863493
20
1.594505
0
SEQEND
8
5
0
POLYLINE
8
5
62
7
70
0
66
1
40
0
41
0
0
VERTEX
8
5
10
3.798979
20
1.562037
0
VERTEX
8
5
10
3.80359
20
1.559651
0
VERTEX
8
5
10
3.829648
20
1.610001
0
VERTEX
8
5
10
3.825037
20
1.612388
0
SEQEND
8
5
0
POLYLINE
8
5
62
7
70
1
66
1
40
0
41
0
0
VERTEX
8
5
10
3.787763
20
1.479862
0
VERTEX
8
5
10
3.751066
20
1.364439
0
VERTEX
8
5
10
3.770302
20
1.358323
0
VERTEX
8
5
10
3.807
20
1.473746
0
SEQEND
8
5
0
POLYLINE
8
5
62
7
70
0
66
1
40
0
41
0
0
VERTEX
8
5
10
3.808479
20
1.473276
0
VERTEX
8
5
10
3.811439
20
1.472335
0
VERTEX
8
5
10
3.774742
20
1.356912
0
VERTEX
8
5
10
3.770302
20
1.358323
0
SEQEND
8
5
0
POLYLINE
8
5
62
7
70
0
66
1
40
0
41
0
0
VERTEX
8
5
10
3.748361
20
1.237768
0
VERTEX
8
5
10
3.753495
20
1.236996
0
VERTEX
8
5
10
3.761926
20
1.293059
0
VERTEX
8
5
10
3.756792
20
1.293832
0
SEQEND
8
5
0
POLYLINE
8
5
62
7
70
0
66
1
40
0
41
0
0
VERTEX
8
5
10
3.748362
20
1.237776
0
VERTEX
8
5
10
3.753496
20
1.237004
0
VERTEX
8
5
10
3.761927
20
1.293068
0
VERTEX
8
5
10
3.756794
20
1.29384
0
SEQEND
8
5
0
POLYLINE
8
5
62
7
70
1
66
1
40
0
41
0
0
VERTEX
8
5
10
3.745596
20
1.49813
0
VERTEX
8
5
10
3.761049
20
1.491821
0
VERTEX
8
5
10
3.753098
20
1.468839
0
VERTEX
8
5
10
3.764804
20
1.464495
0
VERTEX
8
5
10
3.788795
20
1.52664
0
VERTEX
8
5
10
3.763094
20
1.538548
0
SEQEND
8
5
0
POLYLINE
8
5
62
7
70
0
66
1
40
0
41
0
0
VERTEX
8
5
10
3.764088
20
1.53825
0
VERTEX
8
5
10
3.767768
20
1.539686
0
VERTEX
8
5
10
3.794464
20
1.527482
0
VERTEX
8
5
10
3.769246
20
1.464857
0
VERTEX
8
5
10
3.765798
20
1.464197
0
SEQEND
8
5
0
ARC
8
5
62
7
10
5.136528
20
0.9938897
40
1.468371
50
156.9236
51
158.2439
0
ARC
8
5
62
7
10
4.71272
20
1.121335
40
1.028951
50
163.9607
51
165.9974
0
POLYLINE
8
5
62
7
70
1
66
1
40
0
41
0
0
VERTEX
8
5
10
3.753076
20
1.457154
0
VERTEX
8
5
10
3.731894
20
1.463889
0
VERTEX
8
5
10
3.71456
20
1.409365
0
VERTEX
8
5
10
3.735741
20
1.402631
0
SEQEND
8
5
0
POLYLINE
8
5
62
7
70
0
66
1
40
0
41
0
0
VERTEX
8
5
10
3.754419
20
1.456455
0
VERTEX
8
5
10
3.759367
20
1.454882
0
VERTEX
8
5
10
3.742189
20
1.400853
0
VERTEX
8
5
10
3.737242
20
1.402426
0
SEQEND
8
5
0
POLYLINE
8
5
62
7
70
1
66
1
40
0
41
0
0
VERTEX
8
5
10
3.746846
20
1.237733
0
VERTEX
8
5
10
3.724868
20
1.241039
0
VERTEX
8
5
10
3.733375
20
1.297616
0
VERTEX
8
5
10
3.755355
20
1.29431
0
SEQEND
8
5
0
POLYLINE
8
5
62
7
70
1
66
1
40
0
41
0
0
VERTEX
8
5
10
3.746848
20
1.237742
0
VERTEX
8
5
10
3.724869
20
1.241048
0
VERTEX
8
5
10
3.733377
20
1.297624
0
VERTEX
8
5
10
3.755357
20
1.294319
0
SEQEND
8
5
0
ARC
8
5
62
7
10
4.71272
20
1.121335
40
1.028951
50
158.7044
51
160.7238
0
POLYLINE
8
5
62
7
70
0
66
1
40
0
41
0
0
VERTEX
8
5
10
4.036727
20
1.908723
0
VERTEX
8
5
10
4.036504
20
1.904779
0
VERTEX
8
5
10
4.056387
20
1.883186
0
VERTEX
8
5
10
4.108101
20
1.926584
0
VERTEX
8
5
10
4.107659
20
1.930067
0
SEQEND
8
5
0
POLYLINE
8
5
62
7
70
1
66
1
40
0
41
0
0
VERTEX
8
5
10
3.989944
20
1.836172
0
VERTEX
8
5
10
3.974272
20
1.851932
0
VERTEX
8
5
10
4.01484
20
1.892275
0
VERTEX
8
5
10
4.030512
20
1.876515
0
SEQEND
8
5
0
POLYLINE
8
5
62
7
70
0
66
1
40
0
41
0
0
VERTEX
8
5
10
3.99118
20
1.835297
0
VERTEX
8
5
10
3.994841
20
1.831616
0
VERTEX
8
5
10
4.035042
20
1.871592
0
VERTEX
8
5
10
4.031381
20
1.875273
0
SEQEND
8
5
0
POLYLINE
8
5
62
7
70
1
66
1
40
0
41
0
0
VERTEX
8
5
10
4.021929
20
1.806183
0
VERTEX
8
5
10
4.00627
20
1.821956
0
VERTEX
8
5
10
4.046871
20
1.862265
0
VERTEX
8
5
10
4.062531
20
1.846492
0
SEQEND
8
5
0
POLYLINE
8
5
62
7
70
0
66
1
40
0
41
0
0
VERTEX
8
5
10
4.023165
20
1.805306
0
VERTEX
8
5
10
4.026823
20
1.801622
0
VERTEX
8
5
10
4.067056
20
1.841566
0
VERTEX
8
5
10
4.063398
20
1.84525
0
SEQEND
8
5
0
POLYLINE
8
5
62
7
70
1
66
1
40
0
41
0
0
VERTEX
8
5
10
4.021935
20
1.806189
0
VERTEX
8
5
10
4.006276
20
1.821962
0
VERTEX
8
5
10
4.046878
20
1.862271
0
VERTEX
8
5
10
4.062538
20
1.846497
0
SEQEND
8
5
0
POLYLINE
8
5
62
7
70
0
66
1
40
0
41
0
0
VERTEX
8
5
10
4.023171
20
1.805312
0
VERTEX
8
5
10
4.026829
20
1.801628
0
VERTEX
8
5
10
4.067061
20
1.841572
0
VERTEX
8
5
10
4.063405
20
1.845255
0
SEQEND
8
5
0
ARC
8
5
62
7
10
4.727314
20
1.136188
40
1.028951
50
131.9281
51
133.3056
0
ARC
8
5
62
7
10
4.727314
20
1.136188
40
1.028951
50
136.4592
51
138.0364
0
POLYLINE
8
5
62
7
70
1
66
1
40
0
41
0
0
VERTEX
8
5
10
3.918177
20
1.75474
0
VERTEX
8
5
10
3.900309
20
1.767959
0
VERTEX
8
5
10
3.866282
20
1.721964
0
VERTEX
8
5
10
3.88415
20
1.708745
0
SEQEND
8
5
0
POLYLINE
8
5
62
7
70
0
66
1
40
0
41
0
0
VERTEX
8
5
10
3.919223
20
1.753643
0
VERTEX
8
5
10
3.923396
20
1.750556
0
VERTEX
8
5
10
3.889678
20
1.704979
0
VERTEX
8
5
10
3.885504
20
1.708066
0
SEQEND
8
5
0
POLYLINE
8
5
62
7
70
1
66
1
40
0
41
0
0
VERTEX
8
5
10
3.924342
20
1.795934
0
VERTEX
8
5
10
3.936928
20
1.784969
0
VERTEX
8
5
10
3.921974
20
1.76579
0
VERTEX
8
5
10
3.931648
20
1.757896
0
VERTEX
8
5
10
3.974437
20
1.808951
0
VERTEX
8
5
10
3.953965
20
1.828527
0
SEQEND
8
5
0
POLYLINE
8
5
62
7
70
0
66
1
40
0
41
0
0
VERTEX
8
5
10
3.95481
20
1.827923
0
VERTEX
8
5
10
3.958756
20
1.828093
0
VERTEX
8
5
10
3.980074
20
1.807915
0
VERTEX
8
5
10
3.935969
20
1.756803
0
VERTEX
8
5
10
3.932493
20
1.757292
0
SEQEND
8
5
0
ARC
8
5
62
7
10
4.717774
20
1.126778
40
1.028951
50
139.8472
51
141.8666
0
ARC
8
5
62
7
10
4.717774
20
1.126778
40
1.028951
50
145.1035
51
147.1403
0
ARC
8
5
62
7
10
5.215691
20
0.8539163
40
1.596598
50
150.2771
51
151.3829
0
POLYLINE
8
5
62
7
70
1
66
1
40
0
41
0
0
VERTEX
8
5
10
3.84579
20
1.689758
0
VERTEX
8
5
10
3.859957
20
1.680931
0
VERTEX
8
5
10
3.873922
20
1.700841
0
VERTEX
8
5
10
3.884301
20
1.693899
0
VERTEX
8
5
10
3.847996
20
1.638046
0
VERTEX
8
5
10
3.823288
20
1.651897
0
SEQEND
8
5
0
POLYLINE
8
5
62
7
70
0
66
1
40
0
41
0
0
VERTEX
8
5
10
3.824112
20
1.651265
0
VERTEX
8
5
10
3.825104
20
1.647442
0
VERTEX
8
5
10
3.850636
20
1.632959
0
VERTEX
8
5
10
3.886611
20
1.690086
0
VERTEX
8
5
10
3.885125
20
1.693267
0
SEQEND
8
5
0
POLYLINE
8
5
62
7
70
1
66
1
40
0
41
0
0
VERTEX
8
5
10
3.958342
20
1.765018
0
VERTEX
8
5
10
3.886309
20
1.66765
0
VERTEX
8
5
10
3.902536
20
1.655645
0
VERTEX
8
5
10
3.974569
20
1.753013
0
SEQEND
8
5
0
POLYLINE
8
5
62
7
70
0
66
1
40
0
41
0
0
VERTEX
8
5
10
3.975818
20
1.752089
0
VERTEX
8
5
10
3.978314
20
1.750242
0
VERTEX
8
5
10
3.906281
20
1.652875
0
VERTEX
8
5
10
3.902536
20
1.655645
0
SEQEND
8
5
0
LINE
8
2
62
7
10
4.266144
20
1.847675
11
4.268655
21
1.848748
0
LINE
8
5
62
7
10
4.812329
20
1.044397
11
4.420759
21
0.2763676
0
POLYLINE
8
5
62
7
70
1
66
1
40
0
41
0
0
VERTEX
8
5
10
5.76675
20
0.7263271
0
VERTEX
8
5
10
5.751203
20
0.7324025
0
VERTEX
8
5
10
5.758809
20
0.7555022
0
VERTEX
8
5
10
5.747038
20
0.7596692
0
VERTEX
8
5
10
5.723985
20
0.69717
0
VERTEX
8
5
10
5.749863
20
0.6856505
0
SEQEND
8
5
0
POLYLINE
8
5
62
7
70
0
66
1
40
0
41
0
0
VERTEX
8
5
10
5.748864
20
0.6859331
0
VERTEX
8
5
10
5.745206
20
0.6844422
0
VERTEX
8
5
10
5.71833
20
0.6962435
0
VERTEX
8
5
10
5.742601
20
0.7592401
0
VERTEX
8
5
10
5.746039
20
0.759952
0
SEQEND
8
5
0
POLYLINE
8
5
62
7
70
1
66
1
40
0
41
0
0
VERTEX
8
5
10
5.759759
20
0.8615422
0
VERTEX
8
5
10
5.7248
20
0.7455806
0
VERTEX
8
5
10
5.705474
20
0.7514073
0
VERTEX
8
5
10
5.740432
20
0.8673689
0
SEQEND
8
5
0
POLYLINE
8
5
62
7
70
0
66
1
40
0
41
0
0
VERTEX
8
5
10
5.738946
20
0.8678169
0
VERTEX
8
5
10
5.735972
20
0.8687133
0
VERTEX
8
5
10
5.701014
20
0.7527518
0
VERTEX
8
5
10
5.705474
20
0.7514073
0
SEQEND
8
5
0
LINE
8
5
62
7
10
4.833572
20
1.115744
11
5.221709
21
0.3459732
0
LINE
8
5
62
7
10
4.834725
20
1.090799
11
5.052366
21
0.2646321
0
LINE
8
5
62
7
10
4.671263
20
1.083821
11
4.655998
21
0.2141711
0
LINE
8
5
62
7
10
4.678509
20
1.063866
11
4.842443
21
0.2177846
0
LINE
8
5
62
7
10
4.73878
20
1.0193
11
5.518178
21
0.6515135
0
LINE
8
5
62
7
10
4.718401
20
1.025248
11
5.410907
21
0.4989778
0
ARC
8
5
62
7
10
4.794062
20
1.088517
40
1.028951
50
339.5889
51
341.6257
0
POLYLINE
8
5
62
7
70
1
66
1
40
0
41
0
0
VERTEX
8
5
10
4.50382
20
0.04886869
0
VERTEX
8
5
10
4.507358
20
0.06518117
0
VERTEX
8
5
10
4.483907
20
0.07162145
0
VERTEX
8
5
10
4.486945
20
0.08373252
0
VERTEX
8
5
10
4.551765
20
0.06836942
0
VERTEX
8
5
10
4.547049
20
0.04043916
0
SEQEND
8
5
0
POLYLINE
8
5
62
7
70
0
66
1
40
0
41
0
0
VERTEX
8
5
10
4.547366
20
0.04142824
0
VERTEX
8
5
10
4.550632
20
0.04365078
0
VERTEX
8
5
10
4.555666
20
0.07256904
0
VERTEX
8
5
10
4.489757
20
0.08719137
0
VERTEX
8
5
10
4.487263
20
0.084721
0
SEQEND
8
5
0
ARC
8
5
62
7
10
4.74007
20
1.059556
40
1.028951
50
254.8334
51
256.8528
0
POLYLINE
8
5
62
7
70
1
66
1
40
0
41
0
0
VERTEX
8
5
10
4.512605
20
0.0939751
0
VERTEX
8
5
10
4.39666
20
0.1289934
0
VERTEX
8
5
10
4.402497
20
0.1483163
0
VERTEX
8
5
10
4.518441
20
0.113298
0
SEQEND
8
5
0
POLYLINE
8
5
62
7
70
0
66
1
40
0
41
0
0
VERTEX
8
5
10
4.51889
20
0.1147851
0
VERTEX
8
5
10
4.519788
20
0.1177581
0
VERTEX
8
5
10
4.403844
20
0.1527756
0
VERTEX
8
5
10
4.402497
20
0.1483163
0
SEQEND
8
5
0
POLYLINE
8
5
62
7
70
1
66
1
40
0
41
0
0
VERTEX
8
5
10
4.377386
20
0.08705261
0
VERTEX
8
5
10
4.383469
20
0.1025967
0
VERTEX
8
5
10
4.406565
20
0.09497967
0
VERTEX
8
5
10
4.410738
20
0.1067477
0
VERTEX
8
5
10
4.34825
20
0.1298324
0
VERTEX
8
5
10
4.336718
20
0.1039604
0
SEQEND
8
5
0
POLYLINE
8
5
62
7
70
0
66
1
40
0
41
0
0
VERTEX
8
5
10
4.337001
20
0.1049599
0
VERTEX
8
5
10
4.335512
20
0.1086186
0
VERTEX
8
5
10
4.347327
20
0.135489
0
VERTEX
8
5
10
4.410311
20
0.1111851
0
VERTEX
8
5
10
4.411021
20
0.1077463
0
SEQEND
8
5
0
POLYLINE
8
5
62
7
70
1
66
1
40
0
41
0
0
VERTEX
8
5
10
4.474259
20
0.07821181
0
VERTEX
8
5
10
4.467833
20
0.05693522
0
VERTEX
8
5
10
4.413063
20
0.07347694
0
VERTEX
8
5
10
4.419489
20
0.09475365
0
SEQEND
8
5
0
ARC
8
5
62
7
10
4.74007
20
1.059556
40
1.028951
50
249.5597
51
251.5965
0
POLYLINE
8
5
62
7
70
0
66
1
40
0
41
0
0
VERTEX
8
5
10
4.474442
20
0.07971612
0
VERTEX
8
5
10
4.475943
20
0.08468595
0
VERTEX
8
5
10
4.421671
20
0.1010773
0
VERTEX
8
5
10
4.420169
20
0.09610751
0
SEQEND
8
5
0
POLYLINE
8
5
62
7
70
1
66
1
40
0
41
0
0
VERTEX
8
5
10
5.695416
20
0.6181418
0
VERTEX
8
5
10
5.715409
20
0.6084301
0
VERTEX
8
5
10
5.740407
20
0.6598925
0
VERTEX
8
5
10
5.720414
20
0.6696042
0
SEQEND
8
5
0
ARC
8
5
62
7
10
4.794062
20
1.088517
40
1.028951
50
335.6263
51
337.0038
0
POLYLINE
8
5
62
7
70
1
66
1
40
0
41
0
0
VERTEX
8
5
10
5.601683
20
0.431725
0
VERTEX
8
5
10
5.588769
20
0.4423
0
VERTEX
8
5
10
5.60313
20
0.4619266
0
VERTEX
8
5
10
5.593219
20
0.4695217
0
VERTEX
8
5
10
5.552009
20
0.4171831
0
VERTEX
8
5
10
5.573071
20
0.3982424
0
SEQEND
8
5
0
POLYLINE
8
5
62
7
70
0
66
1
40
0
41
0
0
VERTEX
8
5
10
5.572207
20
0.3988191
0
VERTEX
8
5
10
5.568267
20
0.3985294
0
VERTEX
8
5
10
5.546343
20
0.4180464
0
VERTEX
8
5
10
5.588866
20
0.4704821
0
VERTEX
8
5
10
5.592356
20
0.4700989
0
SEQEND
8
5
0
ARC
8
5
62
7
10
4.788182
20
1.076333
40
1.028951
50
321.6193
51
323.6561
0
POLYLINE
8
5
62
7
70
1
66
1
40
0
41
0
0
VERTEX
8
5
10
5.179686
20
0.107792
0
VERTEX
8
5
10
5.172808
20
0.1230008
0
VERTEX
8
5
10
5.150137
20
0.1142006
0
VERTEX
8
5
10
5.145361
20
0.1257376
0
VERTEX
8
5
10
5.206573
20
0.1520193
0
VERTEX
8
5
10
5.219427
20
0.1267786
0
SEQEND
8
5
0
POLYLINE
8
5
62
7
70
0
66
1
40
0
41
0
0
VERTEX
8
5
10
5.219092
20
0.1277614
0
VERTEX
8
5
10
5.22039
20
0.131492
0
VERTEX
8
5
10
5.207203
20
0.1577168
0
VERTEX
8
5
10
5.145558
20
0.1301909
0
VERTEX
8
5
10
5.145026
20
0.1267203
0
SEQEND
8
5
0
POLYLINE
8
5
62
7
70
1
66
1
40
0
41
0
0
VERTEX
8
5
10
5.138462
20
0.1137449
0
VERTEX
8
5
10
5.145977
20
0.0928283
0
VERTEX
8
5
10
5.092135
20
0.07348076
0
VERTEX
8
5
10
5.084619
20
0.09439734
0
SEQEND
8
5
0
POLYLINE
8
5
62
7
70
0
66
1
40
0
41
0
0
VERTEX
8
5
10
5.137712
20
0.1150619
0
VERTEX
8
5
10
5.135957
20
0.1199478
0
VERTEX
8
5
10
5.082603
20
0.1007754
0
VERTEX
8
5
10
5.084359
20
0.09588996
0
SEQEND
8
5
0
POLYLINE
8
5
62
7
70
1
66
1
40
0
41
0
0
VERTEX
8
5
10
5.159866
20
0.1492517
0
VERTEX
8
5
10
5.045884
20
0.1082942
0
VERTEX
8
5
10
5.039059
20
0.1272902
0
VERTEX
8
5
10
5.15304
20
0.1682477
0
SEQEND
8
5
0
POLYLINE
8
5
62
7
70
0
66
1
40
0
41
0
0
VERTEX
8
5
10
5.152515
20
0.1697095
0
VERTEX
8
5
10
5.151464
20
0.172632
0
VERTEX
8
5
10
5.037483
20
0.1316744
0
VERTEX
8
5
10
5.039059
20
0.1272902
0
SEQEND
8
5
0
ARC
8
5
62
7
10
4.76724
20
1.060258
40
1.028951
50
286.1305
51
288.1673
0
POLYLINE
8
5
62
7
70
1
66
1
40
0
41
0
0
VERTEX
8
5
10
4.587464
20
0.05285874
0
VERTEX
8
5
10
4.584716
20
0.03080288
0
VERTEX
8
5
10
4.641491
20
0.02373127
0
VERTEX
8
5
10
4.644238
20
0.0457876
0
SEQEND
8
5
0
ARC
8
5
62
7
10
4.76975
20
1.705857
40
1.677071
50
265.6428
51
266.7217
0
POLYLINE
8
5
62
7
70
0
66
1
40
0
41
0
0
VERTEX
8
5
10
4.587906
20
0.05430761
0
VERTEX
8
5
10
4.588548
20
0.05945912
0
VERTEX
8
5
10
4.644806
20
0.05245236
0
VERTEX
8
5
10
4.644166
20
0.04730085
0
SEQEND
8
5
0
POLYLINE
8
5
62
7
70
1
66
1
40
0
41
0
0
VERTEX
8
5
10
4.594401
20
0.09615174
0
VERTEX
8
5
10
4.591672
20
0.07409373
0
VERTEX
8
5
10
4.648452
20
0.06706896
0
VERTEX
8
5
10
4.651182
20
0.08912697
0
SEQEND
8
5
0
POLYLINE
8
5
62
7
70
0
66
1
40
0
41
0
0
VERTEX
8
5
10
4.594842
20
0.09760144
0
VERTEX
8
5
10
4.595479
20
0.1027534
0
VERTEX
8
5
10
4.651744
20
0.0957922
0
VERTEX
8
5
10
4.651107
20
0.09064022
0
SEQEND
8
5
0
POLYLINE
8
5
62
7
70
1
66
1
40
0
41
0
0
VERTEX
8
5
10
4.59441
20
0.09615055
0
VERTEX
8
5
10
4.591681
20
0.07409242
0
VERTEX
8
5
10
4.648461
20
0.06706801
0
VERTEX
8
5
10
4.65119
20
0.0891265
0
SEQEND
8
5
0
POLYLINE
8
5
62
7
70
0
66
1
40
0
41
0
0
VERTEX
8
5
10
4.594851
20
0.09759977
0
VERTEX
8
5
10
4.595488
20
0.1027518
0
VERTEX
8
5
10
4.651753
20
0.09579125
0
VERTEX
8
5
10
4.651116
20
0.09063974
0
SEQEND
8
5
0
ARC
8
5
62
7
10
4.738146
20
1.464391
40
1.433069
50
276.2951
51
277.6315
0
POLYLINE
8
5
62
7
70
1
66
1
40
0
41
0
0
VERTEX
8
5
10
4.719735
20
0.02021352
0
VERTEX
8
5
10
4.720473
20
0.03688911
0
VERTEX
8
5
10
4.744792
20
0.03713766
0
VERTEX
8
5
10
4.744941
20
0.04962257
0
VERTEX
8
5
10
4.678347
20
0.05129448
0
VERTEX
8
5
10
4.675786
20
0.02308456
0
SEQEND
8
5
0
POLYLINE
8
5
62
7
70
0
66
1
40
0
41
0
0
VERTEX
8
5
10
4.675731
20
0.0241218
0
VERTEX
8
5
10
4.67314
20
0.02710357
0
VERTEX
8
5
10
4.675646
20
0.05634955
0
VERTEX
8
5
10
4.743104
20
0.0536845
0
VERTEX
8
5
10
4.744887
20
0.05065933
0
SEQEND
8
5
0
POLYLINE
8
5
62
7
70
1
66
1
40
0
41
0
0
VERTEX
8
5
10
4.851727
20
0.02489904
0
VERTEX
8
5
10
4.849808
20
0.04148021
0
VERTEX
8
5
10
4.825533
20
0.04000345
0
VERTEX
8
5
10
4.824498
20
0.05244675
0
VERTEX
8
5
10
4.890806
20
0.05883601
0
VERTEX
8
5
10
4.895362
20
0.03087965
0
SEQEND
8
5
0
POLYLINE
8
5
62
7
70
0
66
1
40
0
41
0
0
VERTEX
8
5
10
4.895342
20
0.03191736
0
VERTEX
8
5
10
4.897715
20
0.03507558
0
VERTEX
8
5
10
4.893142
20
0.06407037
0
VERTEX
8
5
10
4.826042
20
0.0566285
0
VERTEX
8
5
10
4.824479
20
0.05348495
0
SEQEND
8
5
0
ARC
8
5
62
7
10
4.748982
20
1.057734
40
1.028951
50
273.6711
51
275.6905
0
ARC
8
5
62
7
10
4.748982
20
1.057734
40
1.028951
50
268.3974
51
270.4342
0
POLYLINE
8
5
62
7
70
0
66
1
40
0
41
0
0
VERTEX
8
5
10
4.813961
20
0.04460827
0
VERTEX
8
5
10
4.813777
20
0.04979673
0
VERTEX
8
5
10
4.757119
20
0.04778615
0
VERTEX
8
5
10
4.757303
20
0.04259816
0
SEQEND
8
5
0
POLYLINE
8
5
62
7
70
1
66
1
40
0
41
0
0
VERTEX
8
5
10
4.845475
20
0.07042578
0
VERTEX
8
5
10
4.724435
20
0.06613126
0
VERTEX
8
5
10
4.72372
20
0.08630398
0
VERTEX
8
5
10
4.84476
20
0.09059849
0
SEQEND
8
5
0
POLYLINE
8
5
62
7
70
0
66
1
40
0
41
0
0
VERTEX
8
5
10
4.844705
20
0.09215084
0
VERTEX
8
5
10
4.844594
20
0.09525445
0
VERTEX
8
5
10
4.723554
20
0.09095946
0
VERTEX
8
5
10
4.72372
20
0.08630398
0
SEQEND
8
5
0
ARC
8
5
62
7
10
4.904358
20
1.624758
40
1.615009
50
257.3917
51
258.6506
0
POLYLINE
8
5
62
7
70
1
66
1
40
0
41
0
0
VERTEX
8
5
10
4.926002
20
0.05602375
0
VERTEX
8
5
10
4.930102
20
0.03417888
0
VERTEX
8
5
10
4.986333
20
0.04473606
0
VERTEX
8
5
10
4.982231
20
0.06658092
0
SEQEND
8
5
0
ARC
8
5
62
7
10
4.76724
20
1.060258
40
1.028951
50
282.168
51
283.5454
0
POLYLINE
8
5
62
7
70
0
66
1
40
0
41
0
0
VERTEX
8
5
10
4.925981
20
0.05753818
0
VERTEX
8
5
10
4.925023
20
0.06264082
0
VERTEX
8
5
10
4.980742
20
0.07310191
0
VERTEX
8
5
10
4.981701
20
0.06800011
0
SEQEND
8
5
0
POLYLINE
8
5
62
7
70
1
66
1
40
0
41
0
0
VERTEX
8
5
10
4.919423
20
0.09937289
0
VERTEX
8
5
10
4.923542
20
0.07753161
0
VERTEX
8
5
10
4.979764
20
0.08813468
0
VERTEX
8
5
10
4.975645
20
0.109976
0
SEQEND
8
5
0
POLYLINE
8
5
62
7
70
0
66
1
40
0
41
0
0
VERTEX
8
5
10
4.919401
20
0.1008878
0
VERTEX
8
5
10
4.918439
20
0.1059891
0
VERTEX
8
5
10
4.974151
20
0.1164958
0
VERTEX
8
5
10
4.975113
20
0.1113948
0
SEQEND
8
5
0
POLYLINE
8
5
62
7
70
1
66
1
40
0
41
0
0
VERTEX
8
5
10
4.919431
20
0.0993742
0
VERTEX
8
5
10
4.923551
20
0.07753292
0
VERTEX
8
5
10
4.979772
20
0.08813682
0
VERTEX
8
5
10
4.975653
20
0.1099781
0
SEQEND
8
5
0
POLYLINE
8
5
62
7
70
0
66
1
40
0
41
0
0
VERTEX
8
5
10
4.919409
20
0.1008886
0
VERTEX
8
5
10
4.918447
20
0.1059901
0
VERTEX
8
5
10
4.974159
20
0.1164979
0
VERTEX
8
5
10
4.975121
20
0.1113969
0
SEQEND
8
5
0
POLYLINE
8
5
62
7
70
1
66
1
40
0
41
0
0
VERTEX
8
5
10
5.055393
20
0.06312659
0
VERTEX
8
5
10
5.051017
20
0.07923487
0
VERTEX
8
5
10
5.074104
20
0.08687809
0
VERTEX
8
5
10
5.070445
20
0.09881583
0
VERTEX
8
5
10
5.006505
20
0.08012453
0
VERTEX
8
5
10
5.012658
20
0.05247501
0
SEQEND
8
5
0
POLYLINE
8
5
62
7
70
0
66
1
40
0
41
0
0
VERTEX
8
5
10
5.01229
20
0.0534462
0
VERTEX
8
5
10
5.008914
20
0.05549708
0
VERTEX
8
5
10
5.002393
20
0.08411697
0
VERTEX
8
5
10
5.067458
20
0.1021251
0
VERTEX
8
5
10
5.070077
20
0.09978667
0
SEQEND
8
5
0
ARC
8
5
62
7
10
4.76724
20
1.060258
40
1.028951
50
291.4042
51
293.4236
0
POLYLINE
8
5
62
7
70
1
66
1
40
0
41
0
0
VERTEX
8
5
10
4.814274
20
0.04312554
0
VERTEX
8
5
10
4.815062
20
0.02091352
0
VERTEX
8
5
10
4.756808
20
0.01888482
0
VERTEX
8
5
10
4.757096
20
0.04109696
0
SEQEND
8
5
0
POLYLINE
8
5
62
7
70
1
66
1
40
0
41
0
0
VERTEX
8
5
10
5.500452
20
0.3508238
0
VERTEX
8
5
10
5.516473
20
0.3354177
0
VERTEX
8
5
10
5.556129
20
0.3766581
0
VERTEX
8
5
10
5.540107
20
0.3920638
0
SEQEND
8
5
0
ARC
8
5
62
7
10
4.788182
20
1.076333
40
1.028951
50
317.6567
51
319.0342
0
POLYLINE
8
5
62
7
70
0
66
1
40
0
41
0
0
VERTEX
8
5
10
5.499557
20
0.3520452
0
VERTEX
8
5
10
5.495814
20
0.3556437
0
VERTEX
8
5
10
5.53511
20
0.3965088
0
VERTEX
8
5
10
5.538852
20
0.3929113
0
SEQEND
8
5
0
POLYLINE
8
5
62
7
70
1
66
1
40
0
41
0
0
VERTEX
8
5
10
5.46993
20
0.3823005
0
VERTEX
8
5
10
5.485963
20
0.3669085
0
VERTEX
8
5
10
5.525585
20
0.4081807
0
VERTEX
8
5
10
5.509552
20
0.4235734
0
SEQEND
8
5
0
POLYLINE
8
5
62
7
70
0
66
1
40
0
41
0
0
VERTEX
8
5
10
5.469033
20
0.3835215
0
VERTEX
8
5
10
5.465287
20
0.3871168
0
VERTEX
8
5
10
5.50455
20
0.4280145
0
VERTEX
8
5
10
5.508295
20
0.4244198
0
SEQEND
8
5
0
POLYLINE
8
5
62
7
70
1
66
1
40
0
41
0
0
VERTEX
8
5
10
5.469935
20
0.3823065
0
VERTEX
8
5
10
5.48597
20
0.3669144
0
VERTEX
8
5
10
5.525591
20
0.4081871
0
VERTEX
8
5
10
5.509557
20
0.4235799
0
SEQEND
8
5
0
POLYLINE
8
5
62
7
70
0
66
1
40
0
41
0
0
VERTEX
8
5
10
5.469038
20
0.383527
0
VERTEX
8
5
10
5.465293
20
0.3871225
0
VERTEX
8
5
10
5.504555
20
0.4280209
0
VERTEX
8
5
10
5.5083
20
0.4244263
0
SEQEND
8
5
0
ARC
8
5
62
7
10
4.788182
20
1.076333
40
1.028951
50
312.9259
51
314.5031
0
POLYLINE
8
5
62
7
70
1
66
1
40
0
41
0
0
VERTEX
8
5
10
5.357353
20
0.2048194
0
VERTEX
8
5
10
5.348275
20
0.2188269
0
VERTEX
8
5
10
5.367934
20
0.2331437
0
VERTEX
8
5
10
5.360809
20
0.2433981
0
VERTEX
8
5
10
5.30561
20
0.2061059
0
VERTEX
8
5
10
5.319898
20
0.1816479
0
SEQEND
8
5
0
POLYLINE
8
5
62
7
70
0
66
1
40
0
41
0
0
VERTEX
8
5
10
5.319251
20
0.1824603
0
VERTEX
8
5
10
5.315411
20
0.1833852
0
VERTEX
8
5
10
5.300477
20
0.208655
0
VERTEX
8
5
10
5.356956
20
0.245639
0
VERTEX
8
5
10
5.360163
20
0.2442104
0
SEQEND
8
5
0
POLYLINE
8
5
62
7
70
1
66
1
40
0
41
0
0
VERTEX
8
5
10
5.462116
20
0.2852456
0
VERTEX
8
5
10
5.450929
20
0.2976345
0
VERTEX
8
5
10
5.432019
20
0.2823419
0
VERTEX
8
5
10
5.423954
20
0.2918738
0
VERTEX
8
5
10
5.474241
20
0.3355638
0
VERTEX
8
5
10
5.494177
20
0.3154425
0
SEQEND
8
5
0
POLYLINE
8
5
62
7
70
0
66
1
40
0
41
0
0
VERTEX
8
5
10
5.493559
20
0.3162762
0
VERTEX
8
5
10
5.493659
20
0.3202254
0
VERTEX
8
5
10
5.473105
20
0.3411821
0
VERTEX
8
5
10
5.422784
20
0.2961759
0
VERTEX
8
5
10
5.423336
20
0.2927083
0
SEQEND
8
5
0
POLYLINE
8
5
62
7
70
1
66
1
40
0
41
0
0
VERTEX
8
5
10
5.421039
20
0.2783491
0
VERTEX
8
5
10
5.434572
20
0.2607192
0
VERTEX
8
5
10
5.38919
20
0.2258803
0
VERTEX
8
5
10
5.375656
20
0.2435104
0
SEQEND
8
5
0
ARC
8
5
62
7
10
4.778967
20
1.066662
40
1.028951
50
309.1515
51
311.1709
0
ARC
8
5
62
7
10
4.778967
20
1.066662
40
1.028951
50
303.8778
51
305.9146
0
ARC
8
5
62
7
10
4.778967
20
1.066662
40
1.028951
50
299.9153
51
301.2927
0
POLYLINE
8
5
62
7
70
0
66
1
40
0
41
0
0
VERTEX
8
5
10
5.419923
20
0.2793752
0
VERTEX
8
5
10
5.416762
20
0.2834934
0
VERTEX
8
5
10
5.371791
20
0.2489704
0
VERTEX
8
5
10
5.374953
20
0.2448525
0
SEQEND
8
5
0
POLYLINE
8
5
62
7
70
1
66
1
40
0
41
0
0
VERTEX
8
5
10
5.430601
20
0.3186902
0
VERTEX
8
5
10
5.334528
20
0.2449388
0
VERTEX
8
5
10
5.322237
20
0.2609505
0
VERTEX
8
5
10
5.41831
20
0.3347019
0
SEQEND
8
5
0
POLYLINE
8
5
62
7
70
0
66
1
40
0
41
0
0
VERTEX
8
5
10
5.417364
20
0.3359341
0
VERTEX
8
5
10
5.415473
20
0.3383974
0
VERTEX
8
5
10
5.3194
20
0.2646455
0
VERTEX
8
5
10
5.322237
20
0.2609505
0
SEQEND
8
5
0
ARC
8
5
62
7
10
4.778967
20
1.066662
40
1.028951
50
295.1845
51
296.7617
0
POLYLINE
8
5
62
7
70
1
66
1
40
0
41
0
0
VERTEX
8
5
10
5.236284
20
0.1586131
0
VERTEX
8
5
10
5.246848
20
0.1390579
0
VERTEX
8
5
10
5.297185
20
0.1662529
0
VERTEX
8
5
10
5.28662
20
0.1858077
0
SEQEND
8
5
0
POLYLINE
8
5
62
7
70
0
66
1
40
0
41
0
0
VERTEX
8
5
10
5.235803
20
0.1600491
0
VERTEX
8
5
10
5.233335
20
0.164617
0
VERTEX
8
5
10
5.283214
20
0.1915648
0
VERTEX
8
5
10
5.285682
20
0.1869978
0
SEQEND
8
5
0
POLYLINE
8
5
62
7
70
1
66
1
40
0
41
0
0
VERTEX
8
5
10
5.216805
20
0.197894
0
VERTEX
8
5
10
5.227386
20
0.1783477
0
VERTEX
8
5
10
5.277699
20
0.2055837
0
VERTEX
8
5
10
5.267119
20
0.2251302
0
SEQEND
8
5
0
POLYLINE
8
5
62
7
70
0
66
1
40
0
41
0
0
VERTEX
8
5
10
5.216322
20
0.1993299
0
VERTEX
8
5
10
5.213851
20
0.2038952
0
VERTEX
8
5
10
5.263709
20
0.230884
0
VERTEX
8
5
10
5.266181
20
0.2263192
0
SEQEND
8
5
0
POLYLINE
8
5
62
7
70
1
66
1
40
0
41
0
0
VERTEX
8
5
10
5.216812
20
0.1978978
0
VERTEX
8
5
10
5.227394
20
0.1783517
0
VERTEX
8
5
10
5.277707
20
0.205588
0
VERTEX
8
5
10
5.267126
20
0.2251345
0
SEQEND
8
5
0
POLYLINE
8
5
62
7
70
0
66
1
40
0
41
0
0
VERTEX
8
5
10
5.21633
20
0.1993333
0
VERTEX
8
5
10
5.213859
20
0.2038991
0
VERTEX
8
5
10
5.263716
20
0.2308888
0
VERTEX
8
5
10
5.266188
20
0.2263235
0
SEQEND
8
5
0
POLYLINE
8
5
62
7
70
0
66
1
40
0
41
0
0
VERTEX
8
5
10
5.694187
20
0.6190271
0
VERTEX
8
5
10
5.689517
20
0.6212956
0
VERTEX
8
5
10
5.714288
20
0.6722907
0
VERTEX
8
5
10
5.718957
20
0.6700229
0
SEQEND
8
5
0
POLYLINE
8
5
62
7
70
1
66
1
40
0
41
0
0
VERTEX
8
5
10
5.656671
20
0.6386666
0
VERTEX
8
5
10
5.676672
20
0.6289715
0
VERTEX
8
5
10
5.701627
20
0.6804544
0
VERTEX
8
5
10
5.681627
20
0.69015
0
SEQEND
8
5
0
POLYLINE
8
5
62
7
70
0
66
1
40
0
41
0
0
VERTEX
8
5
10
5.655441
20
0.6395509
0
VERTEX
8
5
10
5.65077
20
0.6418156
0
VERTEX
8
5
10
5.6755
20
0.6928312
0
VERTEX
8
5
10
5.680171
20
0.6905674
0
SEQEND
8
5
0
POLYLINE
8
5
62
7
70
1
66
1
40
0
41
0
0
VERTEX
8
5
10
5.656676
20
0.6386742
0
VERTEX
8
5
10
5.676675
20
0.6289791
0
VERTEX
8
5
10
5.701631
20
0.6804621
0
VERTEX
8
5
10
5.681631
20
0.6901581
0
SEQEND
8
5
0
POLYLINE
8
5
62
7
70
0
66
1
40
0
41
0
0
VERTEX
8
5
10
5.655446
20
0.6395583
0
VERTEX
8
5
10
5.650774
20
0.641823
0
VERTEX
8
5
10
5.675503
20
0.6928393
0
VERTEX
8
5
10
5.680174
20
0.6905751
0
SEQEND
8
5
0
ARC
8
5
62
7
10
4.794062
20
1.088517
40
1.028951
50
330.8956
51
332.4727
0
ARC
8
5
62
7
10
4.788182
20
1.076333
40
1.028951
50
326.8929
51
328.9123
0
POLYLINE
8
5
62
7
70
1
66
1
40
0
41
0
0
VERTEX
8
5
10
5.676956
20
0.54025
0
VERTEX
8
5
10
5.662526
20
0.5486404
0
VERTEX
8
5
10
5.649175
20
0.5283131
0
VERTEX
8
5
10
5.638589
20
0.534934
0
VERTEX
8
5
10
5.673172
20
0.5918698
0
VERTEX
8
5
10
5.698291
20
0.5787804
0
SEQEND
8
5
0
POLYLINE
8
5
62
7
70
0
66
1
40
0
41
0
0
VERTEX
8
5
10
5.697448
20
0.5793862
0
VERTEX
8
5
10
5.69634
20
0.5831777
0
VERTEX
8
5
10
5.670377
20
0.5968747
0
VERTEX
8
5
10
5.636165
20
0.5386745
0
VERTEX
8
5
10
5.637746
20
0.5355405
0
SEQEND
8
5
0
POLYLINE
8
5
62
7
70
1
66
1
40
0
41
0
0
VERTEX
8
5
10
5.639934
20
0.5211644
0
VERTEX
8
5
10
5.658197
20
0.5084965
0
VERTEX
8
5
10
5.625589
20
0.4614858
0
VERTEX
8
5
10
5.607326
20
0.4741532
0
SEQEND
8
5
0
POLYLINE
8
5
62
7
70
0
66
1
40
0
41
0
0
VERTEX
8
5
10
5.638559
20
0.5218012
0
VERTEX
8
5
10
5.634292
20
0.5247607
0
VERTEX
8
5
10
5.601981
20
0.4781761
0
VERTEX
8
5
10
5.606246
20
0.4752175
0
SEQEND
8
5
0
POLYLINE
8
5
62
7
70
1
66
1
40
0
41
0
0
VERTEX
8
5
10
5.636749
20
0.5625007
0
VERTEX
8
5
10
5.567719
20
0.4629809
0
VERTEX
8
5
10
5.551133
20
0.4744858
0
VERTEX
8
5
10
5.620162
20
0.5740055
0
SEQEND
8
5
0
POLYLINE
8
5
62
7
70
0
66
1
40
0
41
0
0
VERTEX
8
5
10
5.618886
20
0.5748903
0
VERTEX
8
5
10
5.616334
20
0.5766603
0
VERTEX
8
5
10
5.547305
20
0.4771404
0
VERTEX
8
5
10
5.551133
20
0.4744858
0
SEQEND
8
5
0
LINE
8
5
62
7
10
4.803957
20
1.166062
11
4.380019
21
1.748818
0
LINE
8
5
62
7
10
4.818975
20
1.151056
11
4.470308
21
1.931839
0
LINE
8
2
62
7
10
4.678616
20
1.139333
11
4.495352
21
1.344514
0
POLYLINE
8
2
62
7
70
4
75
6
66
1
40
0
41
0
0
VERTEX
8
2
10
4.448187
20
1.552938
70
16
0
VERTEX
8
2
10
4.456872
20
1.526892
70
16
0
VERTEX
8
2
10
4.466577
20
1.500232
70
16
0
VERTEX
8
2
10
4.472122
20
1.486014
70
16
0
VERTEX
8
2
10
4.477668
20
1.473573
70
16
0
VERTEX
8
2
10
4.488758
20
1.457577
70
16
0
VERTEX
8
2
10
4.506629
20
1.43625
70
16
0
VERTEX
8
2
10
4.516094
20
1.422996
70
16
0
VERTEX
8
2
10
4.448187
20
1.552938
70
8
0
VERTEX
8
2
10
4.451269
20
1.54375
70
8
0
VERTEX
8
2
10
4.454019
20
1.535656
70
8
0
VERTEX
8
2
10
4.456464
20
1.528557
70
8
0
VERTEX
8
2
10
4.458632
20
1.522353
70
8
0
VERTEX
8
2
10
4.460549
20
1.516947
70
8
0
VERTEX
8
2
10
4.462244
20
1.51224
70
8
0
VERTEX
8
2
10
4.463744
20
1.508133
70
8
0
VERTEX
8
2
10
4.465075
20
1.504527
70
8
0
VERTEX
8
2
10
4.466264
20
1.501333
70
8
0
VERTEX
8
2
10
4.46733
20
1.498494
70
8
0
VERTEX
8
2
10
4.46829
20
1.495964
70
8
0
VERTEX
8
2
10
4.469162
20
1.493697
70
8
0
VERTEX
8
2
10
4.469964
20
1.491644
70
8
0
VERTEX
8
2
10
4.470712
20
1.48976
70
8
0
VERTEX
8
2
10
4.471426
20
1.487998
70
8
0
VERTEX
8
2
10
4.472122
20
1.48631
70
8
0
VERTEX
8
2
10
4.472817
20
1.484656
70
8
0
VERTEX
8
2
10
4.473523
20
1.483019
70
8
0
VERTEX
8
2
10
4.474251
20
1.48139
70
8
0
VERTEX
8
2
10
4.475011
20
1.479756
70
8
0
VERTEX
8
2
10
4.475814
20
1.478109
70
8
0
VERTEX
8
2
10
4.476671
20
1.476438
70
8
0
VERTEX
8
2
10
4.477594
20
1.474732
70
8
0
VERTEX
8
2
10
4.478592
20
1.47298
70
8
0
VERTEX
8
2
10
4.479678
20
1.471171
70
8
0
VERTEX
8
2
10
4.480871
20
1.469282
70
8
0
VERTEX
8
2
10
4.48219
20
1.467289
70
8
0
VERTEX
8
2
10
4.483656
20
1.465168
70
8
0
VERTEX
8
2
10
4.485287
20
1.462893
70
8
0
VERTEX
8
2
10
4.487105
20
1.460442
70
8
0
VERTEX
8
2
10
4.489128
20
1.457789
70
8
0
VERTEX
8
2
10
4.491377
20
1.454911
70
8
0
VERTEX
8
2
10
4.493865
20
1.451787
70
8
0
VERTEX
8
2
10
4.496573
20
1.448414
70
8
0
VERTEX
8
2
10
4.499478
20
1.444793
70
8
0
VERTEX
8
2
10
4.502555
20
1.440924
70
8
0
VERTEX
8
2
10
4.50578
20
1.43681
70
8
0
VERTEX
8
2
10
4.509127
20
1.432449
70
8
0
VERTEX
8
2
10
4.512574
20
1.427844
70
8
0
VERTEX
8
2
10
4.516094
20
1.422996
70
8
0
SEQEND
8
2
0
LINE
8
2
62
7
10
4.448217
20
1.55285
11
4.363606
21
1.800241
0
POLYLINE
8
2
62
7
70
4
75
6
66
1
40
0
41
0
0
VERTEX
8
2
10
4.348888
20
1.619763
70
16
0
VERTEX
8
2
10
4.375257
20
1.545415
70
16
0
VERTEX
8
2
10
4.39748
20
1.479887
70
16
0
VERTEX
8
2
10
4.41748
20
1.437152
70
16
0
VERTEX
8
2
10
4.437481
20
1.414359
70
16
0
VERTEX
8
2
10
4.468594
20
1.374473
70
16
0
VERTEX
8
2
10
4.495526
20
1.344315
70
16
0
VERTEX
8
2
10
4.348888
20
1.619763
70
8
0
VERTEX
8
2
10
4.358087
20
1.593769
70
8
0
VERTEX
8
2
10
4.366008
20
1.571294
70
8
0
VERTEX
8
2
10
4.372804
20
1.55196
70
8
0
VERTEX
8
2
10
4.378627
20
1.535388
70
8
0
VERTEX
8
2
10
4.383632
20
1.5212
70
8
0
VERTEX
8
2
10
4.38797
20
1.509016
70
8
0
VERTEX
8
2
10
4.391794
20
1.498458
70
8
0
VERTEX
8
2
10
4.395257
20
1.489146
70
8
0
VERTEX
8
2
10
4.398491
20
1.480755
70
8
0
VERTEX
8
2
10
4.401542
20
1.473162
70
8
0
VERTEX
8
2
10
4.404437
20
1.466297
70
8
0
VERTEX
8
2
10
4.407202
20
1.460092
70
8
0
VERTEX
8
2
10
4.409863
20
1.454477
70
8
0
VERTEX
8
2
10
4.412446
20
1.449383
70
8
0
VERTEX
8
2
10
4.414976
20
1.444739
70
8
0
VERTEX
8
2
10
4.41748
20
1.440476
70
8
0
VERTEX
8
2
10
4.419989
20
1.436517
70
8
0
VERTEX
8
2
10
4.42255
20
1.432759
70
8
0
VERTEX
8
2
10
4.425215
20
1.429091
70
8
0
VERTEX
8
2
10
4.428037
20
1.425399
70
8
0
VERTEX
8
2
10
4.431066
20
1.421575
70
8
0
VERTEX
8
2
10
4.434356
20
1.417505
70
8
0
VERTEX
8
2
10
4.437959
20
1.41308
70
8
0
VERTEX
8
2
10
4.441926
20
1.408187
70
8
0
VERTEX
8
2
10
4.446315
20
1.402726
70
8
0
VERTEX
8
2
10
4.451201
20
1.396638
70
8
0
VERTEX
8
2
10
4.456667
20
1.389878
70
8
0
VERTEX
8
2
10
4.462793
20
1.382396
70
8
0
VERTEX
8
2
10
4.469661
20
1.374147
70
8
0
VERTEX
8
2
10
4.477351
20
1.365081
70
8
0
VERTEX
8
2
10
4.485946
20
1.355153
70
8
0
VERTEX
8
2
10
4.495526
20
1.344315
70
8
0
SEQEND
8
2
0
POLYLINE
8
2
62
5
70
0
66
1
40
0
41
0
0
VERTEX
8
2
10
4.399972
20
1.813187
0
VERTEX
8
2
10
4.435683
20
1.826669
0
VERTEX
8
2
10
4.455471
20
1.855999
0
SEQEND
8
2
0
POLYLINE
8
2
62
5
70
0
66
1
40
0
41
0
0
VERTEX
8
2
10
4.376226
20
1.881488
0
VERTEX
8
2
10
4.379971
20
1.882813
0
SEQEND
8
2
0
ARC
8
5
62
7
10
4.752594
20
1.101019
40
0.8914266
50
116.7549
51
118.0148
0
POLYLINE
8
2
62
7
70
0
66
1
40
0
41
0
0
VERTEX
8
2
10
4.340481
20
1.868645
0
VERTEX
8
2
10
4.376675
20
1.88144
0
VERTEX
8
2
10
4.399972
20
1.813187
0
VERTEX
8
2
10
4.363915
20
1.800346
0
SEQEND
8
2
0
POLYLINE
8
2
62
5
70
0
66
1
40
0
41
0
0
VERTEX
8
2
10
4.36452
20
1.929129
0
VERTEX
8
2
10
4.343135
20
1.920904
0
VERTEX
8
2
10
4.354897
20
1.888004
0
VERTEX
8
2
10
4.375864
20
1.895157
0
SEQEND
8
2
0
POLYLINE
8
2
62
5
70
0
66
1
40
0
41
0
0
VERTEX
8
2
10
4.411409
20
1.893937
0
VERTEX
8
2
10
4.414103
20
1.89489
0
VERTEX
8
2
10
4.446451
20
1.88261
0
SEQEND
8
2
0
LINE
8
2
62
5
10
4.440671
20
1.883892
11
4.451131
21
1.850993
0
LINE
8
2
62
5
10
4.446668
20
1.88276
11
4.455408
21
1.856476
0
ARC
8
2
62
5
10
4.442887
20
1.866924
40
0.01615291
50
322.146
51
74.9289
0
ARC
8
2
62
7
10
4.376738
20
1.842791
40
0.04453033
50
144.5083
51
252.8499
0
LINE
8
5
62
7
10
4.787677
20
1.176381
11
5.638395
21
0.9952639
0
LINE
8
5
62
7
10
4.805486
20
1.164824
11
5.592857
21
0.8144307
0
ARC
8
5
62
7
10
4.752594
20
1.101019
40
0.08270194
50
158.9779
51
118.9507
0
LINE
8
5
62
7
10
4.833197
20
1.080686
11
5.229454
21
1.854963
0
LINE
8
5
62
7
10
4.794296
20
1.030059
11
5.630814
21
1.238469
0
LINE
8
5
62
7
10
4.813946
20
1.045467
11
5.5819
21
1.419855
0
LINE
8
5
62
7
10
4.835468
20
1.101794
11
5.060428
21
1.933733
0
CIRCLE
8
2
62
7
10
4.752594
20
1.101019
40
0.03374736
0
ARC
8
2
62
7
10
4.752594
20
1.101019
40
0.04413137
50
293.8892
51
246.7033
0
ARC
8
2
62
7
10
4.635545
20
1.077666
40
0.07519517
50
10.09776
51
55.21681
0
POLYLINE
8
5
62
7
70
1
66
1
40
0
41
0
0
VERTEX
8
5
10
5.812482
20
1.085574
0
VERTEX
8
5
10
5.834707
20
1.085864
0
VERTEX
8
5
10
5.83396
20
1.143072
0
VERTEX
8
5
10
5.811736
20
1.142782
0
SEQEND
8
5
0
POLYLINE
8
5
62
7
70
0
66
1
40
0
41
0
0
VERTEX
8
5
10
5.810987
20
1.085814
0
VERTEX
8
5
10
5.805795
20
1.085747
0
VERTEX
8
5
10
5.805056
20
1.142435
0
VERTEX
8
5
10
5.810247
20
1.142503
0
SEQEND
8
5
0
POLYLINE
8
5
62
7
70
1
66
1
40
0
41
0
0
VERTEX
8
5
10
5.786727
20
1.053085
0
VERTEX
8
5
10
5.785147
20
1.174191
0
VERTEX
8
5
10
5.764964
20
1.173928
0
VERTEX
8
5
10
5.766544
20
1.052822
0
SEQEND
8
5
0
POLYLINE
8
5
62
7
70
0
66
1
40
0
41
0
0
VERTEX
8
5
10
5.76499
20
1.052801
0
VERTEX
8
5
10
5.761886
20
1.052761
0
VERTEX
8
5
10
5.760305
20
1.173867
0
VERTEX
8
5
10
5.764964
20
1.173928
0
SEQEND
8
5
0
CIRCLE
8
2
62
7
10
4.752594
20
1.101019
40
0.009831273
0
CIRCLE
8
2
62
7
10
4.752594
20
1.101019
40
0.01958678
0
LINE
8
2
62
7
10
4.77075
20
1.072358
11
4.77075
21
1.061395
0
LINE
8
2
62
7
10
4.734941
20
1.072375
11
4.734941
21
1.060727
0
POLYLINE
8
5
62
7
70
1
66
1
40
0
41
0
0
VERTEX
8
5
10
5.832505
20
1.049049
0
VERTEX
8
5
10
5.815849
20
1.050162
0
VERTEX
8
5
10
5.816146
20
1.074479
0
VERTEX
8
5
10
5.803668
20
1.07491
0
VERTEX
8
5
10
5.800502
20
1.00837
0
VERTEX
8
5
10
5.828647
20
1.005175
0
SEQEND
8
5
0
POLYLINE
8
5
62
7
70
0
66
1
40
0
41
0
0
VERTEX
8
5
10
5.82761
20
1.005144
0
VERTEX
8
5
10
5.82457
20
1.002621
0
VERTEX
8
5
10
5.795388
20
1.005783
0
VERTEX
8
5
10
5.799567
20
1.073165
0
VERTEX
8
5
10
5.80263
20
1.074879
0
SEQEND
8
5
0
ARC
8
5
62
7
10
4.795902
20
1.101584
40
1.028951
50
353.2309
51
354.5068
0
ARC
8
5
62
7
10
4.795902
20
1.101584
40
1.028951
50
348.4656
51
350.0511
0
POLYLINE
8
5
62
7
70
0
66
1
40
0
41
0
0
VERTEX
8
5
10
5.752494
20
0.9328378
0
VERTEX
8
5
10
5.747359
20
0.9335905
0
VERTEX
8
5
10
5.755578
20
0.9896852
0
VERTEX
8
5
10
5.760714
20
0.988933
0
SEQEND
8
5
0
POLYLINE
8
5
62
7
70
1
66
1
40
0
41
0
0
VERTEX
8
5
10
5.753934
20
0.9323643
0
VERTEX
8
5
10
5.775925
20
0.9291419
0
VERTEX
8
5
10
5.78422
20
0.9857503
0
VERTEX
8
5
10
5.762228
20
0.9889733
0
SEQEND
8
5
0
POLYLINE
8
5
62
7
70
0
66
1
40
0
41
0
0
VERTEX
8
5
10
5.752493
20
0.9328297
0
VERTEX
8
5
10
5.747357
20
0.9335824
0
VERTEX
8
5
10
5.755577
20
0.9896766
0
VERTEX
8
5
10
5.760713
20
0.9889244
0
SEQEND
8
5
0
POLYLINE
8
5
62
7
70
1
66
1
40
0
41
0
0
VERTEX
8
5
10
5.753932
20
0.9323562
0
VERTEX
8
5
10
5.775924
20
0.9291333
0
VERTEX
8
5
10
5.784219
20
0.9857417
0
VERTEX
8
5
10
5.762228
20
0.9889647
0
SEQEND
8
5
0
POLYLINE
8
5
62
7
70
0
66
1
40
0
41
0
0
VERTEX
8
5
10
5.795765
20
0.9257478
0
VERTEX
8
5
10
5.790629
20
0.9265004
0
VERTEX
8
5
10
5.798849
20
0.9825951
0
VERTEX
8
5
10
5.803984
20
0.9818429
0
SEQEND
8
5
0
POLYLINE
8
5
62
7
70
1
66
1
40
0
41
0
0
VERTEX
8
5
10
5.797204
20
0.9252747
0
VERTEX
8
5
10
5.819196
20
0.9220523
0
VERTEX
8
5
10
5.827491
20
0.9786602
0
VERTEX
8
5
10
5.8055
20
0.9818832
0
SEQEND
8
5
0
POLYLINE
8
5
62
7
70
0
66
1
40
0
41
0
0
VERTEX
8
5
10
5.795764
20
0.9257396
0
VERTEX
8
5
10
5.790628
20
0.9264923
0
VERTEX
8
5
10
5.798848
20
0.9825865
0
VERTEX
8
5
10
5.803984
20
0.9818343
0
SEQEND
8
5
0
POLYLINE
8
5
62
7
70
1
66
1
40
0
41
0
0
VERTEX
8
5
10
5.797203
20
0.9252661
0
VERTEX
8
5
10
5.819194
20
0.9220432
0
VERTEX
8
5
10
5.82749
20
0.9786516
0
VERTEX
8
5
10
5.805499
20
0.9818746
0
SEQEND
8
5
0
POLYLINE
8
5
62
7
70
1
66
1
40
0
41
0
0
VERTEX
8
5
10
5.80487
20
0.8527815
0
VERTEX
8
5
10
5.788556
20
0.8563108
0
VERTEX
8
5
10
5.782128
20
0.8328564
0
VERTEX
8
5
10
5.770014
20
0.8358883
0
VERTEX
8
5
10
5.785345
20
0.9007158
0
VERTEX
8
5
10
5.813278
20
0.8960144
0
SEQEND
8
5
0
POLYLINE
8
5
62
7
70
0
66
1
40
0
41
0
0
VERTEX
8
5
10
5.812289
20
0.8963305
0
VERTEX
8
5
10
5.810064
20
0.8995952
0
VERTEX
8
5
10
5.781144
20
0.9046146
0
VERTEX
8
5
10
5.766554
20
0.8386983
0
VERTEX
8
5
10
5.769026
20
0.8362049
0
SEQEND
8
5
0
POLYLINE
8
5
62
7
70
1
66
1
40
0
41
0
0
VERTEX
8
5
10
5.775542
20
0.8232047
0
VERTEX
8
5
10
5.796822
20
0.8167891
0
VERTEX
8
5
10
5.780308
20
0.7620117
0
VERTEX
8
5
10
5.759028
20
0.7684266
0
SEQEND
8
5
0
ARC
8
5
62
7
10
4.794062
20
1.088517
40
1.028951
50
344.8625
51
346.8819
0
POLYLINE
8
5
62
7
70
0
66
1
40
0
41
0
0
VERTEX
8
5
10
5.774037
20
0.8233866
0
VERTEX
8
5
10
5.769067
20
0.8248855
0
VERTEX
8
5
10
5.752703
20
0.7706046
0
VERTEX
8
5
10
5.757674
20
0.7691063
0
SEQEND
8
5
0
ARC
8
5
62
7
10
4.795902
20
1.101584
40
1.028951
50
357.0893
51
359.1086
0
POLYLINE
8
5
62
7
70
1
66
1
40
0
41
0
0
VERTEX
8
5
10
5.711569
20
1.491013
0
VERTEX
8
5
10
5.750459
20
1.37631
0
VERTEX
8
5
10
5.731342
20
1.369829
0
VERTEX
8
5
10
5.692453
20
1.484532
0
SEQEND
8
5
0
POLYLINE
8
5
62
7
70
1
66
1
40
0
41
0
0
VERTEX
8
5
10
5.75338
20
1.510081
0
VERTEX
8
5
10
5.73805
20
1.503479
0
VERTEX
8
5
10
5.746439
20
1.480652
0
VERTEX
8
5
10
5.734817
20
1.476086
0
VERTEX
8
5
10
5.709647
20
1.537762
0
VERTEX
8
5
10
5.735116
20
1.550158
0
SEQEND
8
5
0
POLYLINE
8
5
62
7
70
0
66
1
40
0
41
0
0
VERTEX
8
5
10
5.734127
20
1.549841
0
VERTEX
8
5
10
5.730421
20
1.551207
0
VERTEX
8
5
10
5.703962
20
1.538496
0
VERTEX
8
5
10
5.730368
20
1.476363
0
VERTEX
8
5
10
5.733829
20
1.475769
0
SEQEND
8
5
0
LINE
8
5
62
7
10
4.748207
20
1.183668
11
5.523212
21
1.543233
0
LINE
8
5
62
7
10
4.724883
20
1.178917
11
5.413352
21
1.695629
0
LINE
8
5
62
7
10
4.751441
20
1.184139
11
4.696335
21
1.196004
0
ARC
8
2
62
7
10
4.775796
20
1.223096
40
0.08040103
50
219.9789
51
256.7187
0
LINE
8
2
62
7
10
4.718195
20
1.166276
11
4.516088
21
1.422991
0
LINE
8
5
62
7
10
4.731147
20
1.180887
11
4.706689
21
1.180955
0
LINE
8
5
62
7
10
4.674509
20
1.128148
11
4.674722
21
1.14377
0
POLYLINE
8
2
62
7
70
4
75
6
66
1
40
0
41
0
0
VERTEX
8
2
10
4.678818
20
1.13911
70
16
0
VERTEX
8
2
10
4.694566
20
1.133053
70
16
0
VERTEX
8
2
10
4.711101
20
1.135072
70
16
0
VERTEX
8
2
10
4.714251
20
1.135072
70
16
0
VERTEX
8
2
10
4.721337
20
1.153242
70
16
0
VERTEX
8
2
10
4.719762
20
1.163336
70
16
0
VERTEX
8
2
10
4.718187
20
1.166365
70
16
0
VERTEX
8
2
10
4.678818
20
1.13911
70
8
0
VERTEX
8
2
10
4.68438
20
1.137155
70
8
0
VERTEX
8
2
10
4.689287
20
1.135774
70
8
0
VERTEX
8
2
10
4.693583
20
1.134878
70
8
0
VERTEX
8
2
10
4.697313
20
1.134378
70
8
0
VERTEX
8
2
10
4.700524
20
1.134186
70
8
0
VERTEX
8
2
10
4.703261
20
1.134212
70
8
0
VERTEX
8
2
10
4.705568
20
1.134369
70
8
0
VERTEX
8
2
10
4.707492
20
1.134567
70
8
0
VERTEX
8
2
10
4.709078
20
1.13474
70
8
0
VERTEX
8
2
10
4.710376
20
1.134906
70
8
0
VERTEX
8
2
10
4.711436
20
1.135108
70
8
0
VERTEX
8
2
10
4.712307
20
1.135387
70
8
0
VERTEX
8
2
10
4.713039
20
1.135785
70
8
0
VERTEX
8
2
10
4.713684
20
1.136342
70
8
0
VERTEX
8
2
10
4.714289
20
1.1371
70
8
0
VERTEX
8
2
10
4.714907
20
1.1381
70
8
0
VERTEX
8
2
10
4.715573
20
1.139371
70
8
0
VERTEX
8
2
10
4.716274
20
1.140884
70
8
0
VERTEX
8
2
10
4.716985
20
1.142598
70
8
0
VERTEX
8
2
10
4.717679
20
1.144472
70
8
0
VERTEX
8
2
10
4.71833
20
1.146465
70
8
0
VERTEX
8
2
10
4.718911
20
1.148534
70
8
0
VERTEX
8
2
10
4.719397
20
1.150638
70
8
0
VERTEX
8
2
10
4.719762
20
1.152737
70
8
0
VERTEX
8
2
10
4.719985
20
1.154793
70
8
0
VERTEX
8
2
10
4.72007
20
1.156783
70
8
0
VERTEX
8
2
10
4.720025
20
1.15869
70
8
0
VERTEX
8
2
10
4.719861
20
1.160497
70
8
0
VERTEX
8
2
10
4.719585
20
1.162186
70
8
0
VERTEX
8
2
10
4.719209
20
1.163739
70
8
0
VERTEX
8
2
10
4.718739
20
1.165137
70
8
0
VERTEX
8
2
10
4.718187
20
1.166365
70
8
0
SEQEND
8
2
0
ARC
8
2
62
7
10
4.697985
20
1.122611
40
0.02397757
50
139.2416
51
160.1014
0
POLYLINE
8
5
62
7
70
0
66
1
40
0
41
0
0
VERTEX
8
5
10
5.639202
20
1.592966
0
VERTEX
8
5
10
5.634611
20
1.590544
0
VERTEX
8
5
10
5.661064
20
1.540399
0
VERTEX
8
5
10
5.665655
20
1.542821
0
SEQEND
8
5
0
POLYLINE
8
5
62
7
70
0
66
1
40
0
41
0
0
VERTEX
8
5
10
5.639198
20
1.592973
0
VERTEX
8
5
10
5.634607
20
1.59055
0
VERTEX
8
5
10
5.661059
20
1.540407
0
VERTEX
8
5
10
5.665651
20
1.542829
0
SEQEND
8
5
0
POLYLINE
8
5
62
7
70
1
66
1
40
0
41
0
0
VERTEX
8
5
10
5.640401
20
1.593892
0
VERTEX
8
5
10
5.66006
20
1.604262
0
VERTEX
8
5
10
5.686756
20
1.553659
0
VERTEX
8
5
10
5.667097
20
1.543288
0
SEQEND
8
5
0
POLYLINE
8
5
62
7
70
1
66
1
40
0
41
0
0
VERTEX
8
5
10
5.640398
20
1.593899
0
VERTEX
8
5
10
5.660056
20
1.60427
0
VERTEX
8
5
10
5.686751
20
1.553667
0
VERTEX
8
5
10
5.667093
20
1.543296
0
SEQEND
8
5
0
POLYLINE
8
5
62
7
70
0
66
1
40
0
41
0
0
VERTEX
8
5
10
5.677633
20
1.614077
0
VERTEX
8
5
10
5.673042
20
1.611655
0
VERTEX
8
5
10
5.699494
20
1.561511
0
VERTEX
8
5
10
5.704085
20
1.563933
0
SEQEND
8
5
0
POLYLINE
8
5
62
7
70
1
66
1
40
0
41
0
0
VERTEX
8
5
10
5.678833
20
1.615003
0
VERTEX
8
5
10
5.698491
20
1.625374
0
VERTEX
8
5
10
5.725186
20
1.574771
0
VERTEX
8
5
10
5.705526
20
1.5644
0
SEQEND
8
5
0
POLYLINE
8
5
62
7
70
0
66
1
40
0
41
0
0
VERTEX
8
5
10
5.677629
20
1.614085
0
VERTEX
8
5
10
5.673038
20
1.611663
0
VERTEX
8
5
10
5.699489
20
1.561519
0
VERTEX
8
5
10
5.704082
20
1.56394
0
SEQEND
8
5
0
POLYLINE
8
5
62
7
70
1
66
1
40
0
41
0
0
VERTEX
8
5
10
5.678828
20
1.61501
0
VERTEX
8
5
10
5.698486
20
1.625381
0
VERTEX
8
5
10
5.725182
20
1.574779
0
VERTEX
8
5
10
5.705522
20
1.564408
0
SEQEND
8
5
0
ARC
8
5
62
7
10
4.793612
20
1.114926
40
1.028951
50
24.96993
51
26.24582
0
POLYLINE
8
5
62
7
70
0
66
1
40
0
41
0
0
VERTEX
8
5
10
5.690982
20
1.484033
0
VERTEX
8
5
10
5.688041
20
1.483036
0
VERTEX
8
5
10
5.72693
20
1.368333
0
VERTEX
8
5
10
5.731342
20
1.369829
0
SEQEND
8
5
0
POLYLINE
8
5
62
7
70
0
66
1
40
0
41
0
0
VERTEX
8
5
10
5.468958
20
1.908281
0
VERTEX
8
5
10
5.469179
20
1.904337
0
VERTEX
8
5
10
5.449283
20
1.882755
0
VERTEX
8
5
10
5.397596
20
1.926185
0
VERTEX
8
5
10
5.39804
20
1.929668
0
SEQEND
8
5
0
ARC
8
5
62
7
10
4.777894
20
1.136173
40
1.028951
50
46.74141
51
48.0173
0
ARC
8
5
62
7
10
4.777894
20
1.136173
40
1.028951
50
41.97612
51
43.56167
0
POLYLINE
8
5
62
7
70
0
66
1
40
0
41
0
0
VERTEX
8
5
10
5.482421
20
1.804892
0
VERTEX
8
5
10
5.478762
20
1.80121
0
VERTEX
8
5
10
5.438551
20
1.841177
0
VERTEX
8
5
10
5.442211
20
1.844859
0
SEQEND
8
5
0
POLYLINE
8
5
62
7
70
1
66
1
40
0
41
0
0
VERTEX
8
5
10
5.483658
20
1.805768
0
VERTEX
8
5
10
5.499327
20
1.821532
0
VERTEX
8
5
10
5.458748
20
1.861864
0
VERTEX
8
5
10
5.443079
20
1.8461
0
SEQEND
8
5
0
POLYLINE
8
5
62
7
70
0
66
1
40
0
41
0
0
VERTEX
8
5
10
5.482427
20
1.804886
0
VERTEX
8
5
10
5.478767
20
1.801204
0
VERTEX
8
5
10
5.438558
20
1.841171
0
VERTEX
8
5
10
5.442217
20
1.844853
0
SEQEND
8
5
0
POLYLINE
8
5
62
7
70
1
66
1
40
0
41
0
0
VERTEX
8
5
10
5.483663
20
1.805762
0
VERTEX
8
5
10
5.499332
20
1.821526
0
VERTEX
8
5
10
5.458755
20
1.861859
0
VERTEX
8
5
10
5.443086
20
1.846094
0
SEQEND
8
5
0
POLYLINE
8
5
62
7
70
0
66
1
40
0
41
0
0
VERTEX
8
5
10
5.513854
20
1.835464
0
VERTEX
8
5
10
5.510193
20
1.831783
0
VERTEX
8
5
10
5.469984
20
1.871749
0
VERTEX
8
5
10
5.473643
20
1.875431
0
SEQEND
8
5
0
POLYLINE
8
5
62
7
70
1
66
1
40
0
41
0
0
VERTEX
8
5
10
5.51509
20
1.83634
0
VERTEX
8
5
10
5.530758
20
1.852104
0
VERTEX
8
5
10
5.49018
20
1.892436
0
VERTEX
8
5
10
5.474511
20
1.876673
0
SEQEND
8
5
0
POLYLINE
8
5
62
7
70
0
66
1
40
0
41
0
0
VERTEX
8
5
10
5.513859
20
1.835458
0
VERTEX
8
5
10
5.5102
20
1.831776
0
VERTEX
8
5
10
5.46999
20
1.871743
0
VERTEX
8
5
10
5.47365
20
1.875425
0
SEQEND
8
5
0
POLYLINE
8
5
62
7
70
1
66
1
40
0
41
0
0
VERTEX
8
5
10
5.515095
20
1.836334
0
VERTEX
8
5
10
5.530765
20
1.852098
0
VERTEX
8
5
10
5.490186
20
1.892431
0
VERTEX
8
5
10
5.474518
20
1.876667
0
SEQEND
8
5
0
POLYLINE
8
5
62
7
70
1
66
1
40
0
41
0
0
VERTEX
8
5
10
5.586214
20
1.755756
0
VERTEX
8
5
10
5.604066
20
1.768996
0
VERTEX
8
5
10
5.638149
20
1.723043
0
VERTEX
8
5
10
5.620296
20
1.709802
0
SEQEND
8
5
0
POLYLINE
8
5
62
7
70
0
66
1
40
0
41
0
0
VERTEX
8
5
10
5.585169
20
1.754658
0
VERTEX
8
5
10
5.580999
20
1.751565
0
VERTEX
8
5
10
5.614773
20
1.70603
0
VERTEX
8
5
10
5.618944
20
1.709122
0
SEQEND
8
5
0
POLYLINE
8
5
62
7
70
1
66
1
40
0
41
0
0
VERTEX
8
5
10
5.579998
20
1.796942
0
VERTEX
8
5
10
5.567426
20
1.785962
0
VERTEX
8
5
10
5.582403
20
1.766801
0
VERTEX
8
5
10
5.572739
20
1.758895
0
VERTEX
8
5
10
5.529887
20
1.809899
0
VERTEX
8
5
10
5.550336
20
1.829498
0
SEQEND
8
5
0
POLYLINE
8
5
62
7
70
0
66
1
40
0
41
0
0
VERTEX
8
5
10
5.549491
20
1.828895
0
VERTEX
8
5
10
5.545545
20
1.829059
0
VERTEX
8
5
10
5.524252
20
1.808855
0
VERTEX
8
5
10
5.568419
20
1.757797
0
VERTEX
8
5
10
5.571895
20
1.758291
0
SEQEND
8
5
0
ARC
8
5
62
7
10
4.787382
20
1.126821
40
1.028951
50
38.20314
51
40.22253
0
ARC
8
5
62
7
10
4.787382
20
1.126821
40
1.028951
50
32.92948
51
34.96626
0
ARC
8
5
62
7
10
4.793612
20
1.114926
40
1.028951
50
29.42556
51
31.01111
0
POLYLINE
8
5
62
7
70
1
66
1
40
0
41
0
0
VERTEX
8
5
10
5.658679
20
1.690862
0
VERTEX
8
5
10
5.644523
20
1.682018
0
VERTEX
8
5
10
5.630533
20
1.70191
0
VERTEX
8
5
10
5.620163
20
1.694956
0
VERTEX
8
5
10
5.656537
20
1.639147
0
VERTEX
8
5
10
5.681228
20
1.653029
0
SEQEND
8
5
0
POLYLINE
8
5
62
7
70
0
66
1
40
0
41
0
0
VERTEX
8
5
10
5.680404
20
1.652396
0
VERTEX
8
5
10
5.679416
20
1.648571
0
VERTEX
8
5
10
5.653903
20
1.634057
0
VERTEX
8
5
10
5.617858
20
1.69114
0
VERTEX
8
5
10
5.61934
20
1.694324
0
SEQEND
8
5
0
POLYLINE
8
5
62
7
70
1
66
1
40
0
41
0
0
VERTEX
8
5
10
5.546036
20
1.765985
0
VERTEX
8
5
10
5.618187
20
1.668705
0
VERTEX
8
5
10
5.601975
20
1.65668
0
VERTEX
8
5
10
5.529823
20
1.75396
0
SEQEND
8
5
0
POLYLINE
8
5
62
7
70
0
66
1
40
0
41
0
0
VERTEX
8
5
10
5.528576
20
1.753035
0
VERTEX
8
5
10
5.526082
20
1.751185
0
VERTEX
8
5
10
5.598234
20
1.653905
0
VERTEX
8
5
10
5.601975
20
1.65668
0
SEQEND
8
5
0
ARC
8
5
62
7
10
4.793612
20
1.114926
40
1.028951
50
15.09439
51
17.13117
0
POLYLINE
8
5
62
7
70
1
66
1
40
0
41
0
0
VERTEX
8
5
10
5.791829
20
1.306144
0
VERTEX
8
5
10
5.813719
20
1.309987
0
VERTEX
8
5
10
5.82361
20
1.253635
0
VERTEX
8
5
10
5.801717
20
1.249793
0
SEQEND
8
5
0
POLYLINE
8
5
62
7
70
0
66
1
40
0
41
0
0
VERTEX
8
5
10
5.790403
20
1.305631
0
VERTEX
8
5
10
5.785289
20
1.304733
0
VERTEX
8
5
10
5.79509
20
1.248893
0
VERTEX
8
5
10
5.800203
20
1.24979
0
SEQEND
8
5
0
POLYLINE
8
5
62
7
70
1
66
1
40
0
41
0
0
VERTEX
8
5
10
5.748934
20
1.297059
0
VERTEX
8
5
10
5.770829
20
1.300883
0
VERTEX
8
5
10
5.780673
20
1.244524
0
VERTEX
8
5
10
5.758777
20
1.2407
0
SEQEND
8
5
0
POLYLINE
8
5
62
7
70
0
66
1
40
0
41
0
0
VERTEX
8
5
10
5.747509
20
1.296547
0
VERTEX
8
5
10
5.742394
20
1.295654
0
VERTEX
8
5
10
5.752149
20
1.239806
0
VERTEX
8
5
10
5.757263
20
1.240698
0
SEQEND
8
5
0
POLYLINE
8
5
62
7
70
1
66
1
40
0
41
0
0
VERTEX
8
5
10
5.748936
20
1.297051
0
VERTEX
8
5
10
5.770831
20
1.300875
0
VERTEX
8
5
10
5.780674
20
1.244515
0
VERTEX
8
5
10
5.758778
20
1.240691
0
SEQEND
8
5
0
POLYLINE
8
5
62
7
70
0
66
1
40
0
41
0
0
VERTEX
8
5
10
5.74751
20
1.296539
0
VERTEX
8
5
10
5.742395
20
1.295646
0
VERTEX
8
5
10
5.75215
20
1.239797
0
VERTEX
8
5
10
5.757264
20
1.24069
0
SEQEND
8
5
0
ARC
8
5
62
7
10
4.795901
20
1.10164
40
1.028951
50
7.042064
51
8.419514
0
ARC
8
5
62
7
10
4.795901
20
1.10164
40
1.028951
50
11.57314
51
13.1503
0
POLYLINE
8
5
62
7
70
1
66
1
40
0
41
0
0
VERTEX
8
5
10
5.795791
20
1.385
0
VERTEX
8
5
10
5.779607
20
1.380917
0
VERTEX
8
5
10
5.772381
20
1.404138
0
VERTEX
8
5
10
5.76038
20
1.400695
0
VERTEX
8
5
10
5.777913
20
1.336428
0
VERTEX
8
5
10
5.805668
20
1.34208
0
SEQEND
8
5
0
POLYLINE
8
5
62
7
70
0
66
1
40
0
41
0
0
VERTEX
8
5
10
5.804691
20
1.341729
0
VERTEX
8
5
10
5.802578
20
1.33839
0
VERTEX
8
5
10
5.773846
20
1.332389
0
VERTEX
8
5
10
5.757018
20
1.397768
0
VERTEX
8
5
10
5.759403
20
1.400344
0
SEQEND
8
5
0
POLYLINE
8
5
62
7
70
1
66
1
40
0
41
0
0
VERTEX
8
5
10
5.746683
20
1.46897
0
VERTEX
8
5
10
5.767733
20
1.476107
0
VERTEX
8
5
10
5.786104
20
1.421924
0
VERTEX
8
5
10
5.765054
20
1.414787
0
SEQEND
8
5
0
POLYLINE
8
5
62
7
70
0
66
1
40
0
41
0
0
VERTEX
8
5
10
5.745352
20
1.468246
0
VERTEX
8
5
10
5.740436
20
1.466578
0
VERTEX
8
5
10
5.758641
20
1.412887
0
VERTEX
8
5
10
5.763557
20
1.414553
0
SEQEND
8
5
0
ARC
8
5
62
7
10
4.793612
20
1.114926
40
1.028951
50
20.36806
51
22.38744
0
POLYLINE
8
5
62
7
70
1
66
1
40
0
41
0
0
VERTEX
8
5
10
5.830782
20
1.181113
0
VERTEX
8
5
10
5.814163
20
1.179567
0
VERTEX
8
5
10
5.815094
20
1.155265
0
VERTEX
8
5
10
5.802631
20
1.15451
0
VERTEX
8
5
10
5.797732
20
1.220945
0
VERTEX
8
5
10
5.825784
20
1.224871
0
SEQEND
8
5
0
POLYLINE
8
5
62
7
70
0
66
1
40
0
41
0
0
VERTEX
8
5
10
5.824746
20
1.224875
0
VERTEX
8
5
10
5.821641
20
1.227319
0
VERTEX
8
5
10
5.792552
20
1.223397
0
VERTEX
8
5
10
5.798485
20
1.156148
0
VERTEX
8
5
10
5.801592
20
1.154514
0
SEQEND
8
5
0
ARC
8
5
62
7
10
4.795902
20
1.101584
40
1.028951
50
2.345517
51
4.382301
0
POLYLINE
8
2
62
5
70
4
75
6
66
1
40
0
41
0
0
VERTEX
8
2
10
4.45469
20
3.049
70
16
0
VERTEX
8
2
10
4.492448
20
3.044729
70
16
0
VERTEX
8
2
10
4.53687
20
3.031915
70
16
0
VERTEX
8
2
10
4.575738
20
3.004865
70
16
0
VERTEX
8
2
10
4.605722
20
2.976391
70
16
0
VERTEX
8
2
10
4.634596
20
2.926562
70
16
0
VERTEX
8
2
10
4.647922
20
2.872461
70
16
0
VERTEX
8
2
10
4.647922
20
2.824055
70
16
0
VERTEX
8
2
10
4.643322
20
2.773615
70
16
0
VERTEX
8
2
10
4.611116
20
2.685142
70
16
0
VERTEX
8
2
10
4.578911
20
2.620262
70
16
0
VERTEX
8
2
10
4.532903
20
2.549484
70
16
0
VERTEX
8
2
10
4.45469
20
2.46101
70
16
0
VERTEX
8
2
10
4.367276
20
2.390232
70
16
0
VERTEX
8
2
10
4.302866
20
2.343046
70
16
0
VERTEX
8
2
10
4.220052
20
2.284065
70
16
0
VERTEX
8
2
10
4.160242
20
2.254574
70
16
0
VERTEX
8
2
10
4.114234
20
2.213286
70
16
0
VERTEX
8
2
10
4.036022
20
2.148406
70
16
0
VERTEX
8
2
10
3.990014
20
2.107118
70
16
0
VERTEX
8
2
10
4.45469
20
3.049
70
8
0
VERTEX
8
2
10
4.468142
20
3.0473
70
8
0
VERTEX
8
2
10
4.480264
20
3.045409
70
8
0
VERTEX
8
2
10
4.491185
20
3.043338
70
8
0
VERTEX
8
2
10
4.501032
20
3.041096
70
8
0
VERTEX
8
2
10
4.509933
20
3.038692
70
8
0
VERTEX
8
2
10
4.518017
20
3.036137
70
8
0
VERTEX
8
2
10
4.52541
20
3.03344
70
8
0
VERTEX
8
2
10
4.532242
20
3.03061
70
8
0
VERTEX
8
2
10
4.538625
20
3.027659
70
8
0
VERTEX
8
2
10
4.544611
20
3.024599
70
8
0
VERTEX
8
2
10
4.550237
20
3.021441
70
8
0
VERTEX
8
2
10
4.55554
20
3.018198
70
8
0
VERTEX
8
2
10
4.560557
20
3.014882
70
8
0
VERTEX
8
2
10
4.565324
20
3.011507
70
8
0
VERTEX
8
2
10
4.569878
20
3.008085
70
8
0
VERTEX
8
2
10
4.574257
20
3.004628
70
8
0
VERTEX
8
2
10
4.578494
20
3.00114
70
8
0
VERTEX
8
2
10
4.582607
20
2.997591
70
8
0
VERTEX
8
2
10
4.586611
20
2.993942
70
8
0
VERTEX
8
2
10
4.590522
20
2.990154
70
8
0
VERTEX
8
2
10
4.594355
20
2.986187
70
8
0
VERTEX
8
2
10
4.598125
20
2.982004
70
8
0
VERTEX
8
2
10
4.601847
20
2.977566
70
8
0
VERTEX
8
2
10
4.605537
20
2.972832
70
8
0
VERTEX
8
2
10
4.609202
20
2.967777
70
8
0
VERTEX
8
2
10
4.612822
20
2.962421
70
8
0
VERTEX
8
2
10
4.616368
20
2.956799
70
8
0
VERTEX
8
2
10
4.619812
20
2.950942
70
8
0
VERTEX
8
2
10
4.623126
20
2.944886
70
8
0
VERTEX
8
2
10
4.626281
20
2.938663
70
8
0
VERTEX
8
2
10
4.62925
20
2.932306
70
8
0
VERTEX
8
2
10
4.632005
20
2.92585
70
8
0
VERTEX
8
2
10
4.634521
20
2.919324
70
8
0
VERTEX
8
2
10
4.6368
20
2.912751
70
8
0
VERTEX
8
2
10
4.638843
20
2.90615
70
8
0
VERTEX
8
2
10
4.640657
20
2.899541
70
8
0
VERTEX
8
2
10
4.642246
20
2.892943
70
8
0
VERTEX
8
2
10
4.643613
20
2.886375
70
8
0
VERTEX
8
2
10
4.644763
20
2.879858
70
8
0
VERTEX
8
2
10
4.645701
20
2.87341
70
8
0
VERTEX
8
2
10
4.646433
20
2.867045
70
8
0
VERTEX
8
2
10
4.646973
20
2.860754
70
8
0
VERTEX
8
2
10
4.647339
20
2.854522
70
8
0
VERTEX
8
2
10
4.647549
20
2.848334
70
8
0
VERTEX
8
2
10
4.647618
20
2.842174
70
8
0
VERTEX
8
2
10
4.647564
20
2.836028
70
8
0
VERTEX
8
2
10
4.647404
20
2.82988
70
8
0
VERTEX
8
2
10
4.647155
20
2.823716
70
8
0
VERTEX
8
2
10
4.646824
20
2.81751
70
8
0
VERTEX
8
2
10
4.646377
20
2.811203
70
8
0
VERTEX
8
2
10
4.645767
20
2.804723
70
8
0
VERTEX
8
2
10
4.644951
20
2.798
70
8
0
VERTEX
8
2
10
4.643883
20
2.790965
70
8
0
VERTEX
8
2
10
4.642519
20
2.783546
70
8
0
VERTEX
8
2
10
4.640813
20
2.775673
70
8
0
VERTEX
8
2
10
4.638721
20
2.767276
70
8
0
VERTEX
8
2
10
4.636214
20
2.758317
70
8
0
VERTEX
8
2
10
4.633329
20
2.748884
70
8
0
VERTEX
8
2
10
4.630121
20
2.739098
70
8
0
VERTEX
8
2
10
4.626644
20
2.729078
70
8
0
VERTEX
8
2
10
4.622951
20
2.718945
70
8
0
VERTEX
8
2
10
4.619096
20
2.70882
70
8
0
VERTEX
8
2
10
4.615133
20
2.698823
70
8
0
VERTEX
8
2
10
4.611116
20
2.689074
70
8
0
VERTEX
8
2
10
4.607086
20
2.679664
70
8
0
VERTEX
8
2
10
4.603029
20
2.670566
70
8
0
VERTEX
8
2
10
4.598918
20
2.66172
70
8
0
VERTEX
8
2
10
4.594726
20
2.653071
70
8
0
VERTEX
8
2
10
4.590426
20
2.644559
70
8
0
VERTEX
8
2
10
4.585992
20
2.636129
70
8
0
VERTEX
8
2
10
4.581395
20
2.627721
70
8
0
VERTEX
8
2
10
4.57661
20
2.619279
70
8
0
VERTEX
8
2
10
4.571608
20
2.61075
70
8
0
VERTEX
8
2
10
4.566355
20
2.602107
70
8
0
VERTEX
8
2
10
4.560813
20
2.593325
70
8
0
VERTEX
8
2
10
4.554949
20
2.584381
70
8
0
VERTEX
8
2
10
4.548724
20
2.575254
70
8
0
VERTEX
8
2
10
4.542105
20
2.565919
70
8
0
VERTEX
8
2
10
4.535054
20
2.556353
70
8
0
VERTEX
8
2
10
4.527536
20
2.546534
70
8
0
VERTEX
8
2
10
4.519528
20
2.536454
70
8
0
VERTEX
8
2
10
4.511062
20
2.526167
70
8
0
VERTEX
8
2
10
4.502182
20
2.515742
70
8
0
VERTEX
8
2
10
4.492934
20
2.505247
70
8
0
VERTEX
8
2
10
4.483363
20
2.494752
70
8
0
VERTEX
8
2
10
4.473513
20
2.484327
70
8
0
VERTEX
8
2
10
4.463429
20
2.474039
70
8
0
VERTEX
8
2
10
4.453157
20
2.463959
70
8
0
VERTEX
8
2
10
4.442744
20
2.454146
70
8
0
VERTEX
8
2
10
4.43225
20
2.444621
70
8
0
VERTEX
8
2
10
4.421738
20
2.435396
70
8
0
VERTEX
8
2
10
4.411271
20
2.426481
70
8
0
VERTEX
8
2
10
4.400912
20
2.417889
70
8
0
VERTEX
8
2
10
4.390723
20
2.409631
70
8
0
VERTEX
8
2
10
4.380768
20
2.401719
70
8
0
VERTEX
8
2
10
4.37111
20
2.394164
70
8
0
VERTEX
8
2
10
4.361787
20
2.386964
70
8
0
VERTEX
8
2
10
4.352743
20
2.380064
70
8
0
VERTEX
8
2
10
4.343896
20
2.373394
70
8
0
VERTEX
8
2
10
4.335167
20
2.366885
70
8
0
VERTEX
8
2
10
4.326473
20
2.360468
70
8
0
VERTEX
8
2
10
4.317734
20
2.354075
70
8
0
VERTEX
8
2
10
4.30887
20
2.347635
70
8
0
VERTEX
8
2
10
4.299798
20
2.34108
70
8
0
VERTEX
8
2
10
4.290467
20
2.334366
70
8
0
VERTEX
8
2
10
4.280928
20
2.327548
70
8
0
VERTEX
8
2
10
4.271264
20
2.320707
70
8
0
VERTEX
8
2
10
4.261554
20
2.313924
70
8
0
VERTEX
8
2
10
4.251881
20
2.307279
70
8
0
VERTEX
8
2
10
4.242325
20
2.300853
70
8
0
VERTEX
8
2
10
4.232966
20
2.294726
70
8
0
VERTEX
8
2
10
4.223886
20
2.28898
70
8
0
VERTEX
8
2
10
4.215149
20
2.283667
70
8
0
VERTEX
8
2
10
4.206753
20
2.278735
70
8
0
VERTEX
8
2
10
4.19868
20
2.274102
70
8
0
VERTEX
8
2
10
4.190914
20
2.269688
70
8
0
VERTEX
8
2
10
4.183435
20
2.265412
70
8
0
VERTEX
8
2
10
4.176225
20
2.261194
70
8
0
VERTEX
8
2
10
4.169267
20
2.256952
70
8
0
VERTEX
8
2
10
4.162542
20
2.252608
70
8
0
VERTEX
8
2
10
4.156009
20
2.248077
70
8
0
VERTEX
8
2
10
4.149525
20
2.243276
70
8
0
VERTEX
8
2
10
4.142924
20
2.238118
70
8
0
VERTEX
8
2
10
4.13604
20
2.232517
70
8
0
VERTEX
8
2
10
4.128707
20
2.226385
70
8
0
VERTEX
8
2
10
4.120758
20
2.219637
70
8
0
VERTEX
8
2
10
4.112028
20
2.212187
70
8
0
VERTEX
8
2
10
4.102349
20
2.203947
70
8
0
VERTEX
8
2
10
4.091594
20
2.194848
70
8
0
VERTEX
8
2
10
4.079783
20
2.184878
70
8
0
VERTEX
8
2
10
4.066974
20
2.174044
70
8
0
VERTEX
8
2
10
4.053227
20
2.162353
70
8
0
VERTEX
8
2
10
4.038598
20
2.149808
70
8
0
VERTEX
8
2
10
4.023148
20
2.136417
70
8
0
VERTEX
8
2
10
4.006934
20
2.122185
70
8
0
VERTEX
8
2
10
3.990014
20
2.107118
70
8
0
SEQEND
8
2
0
POLYLINE
8
2
62
5
70
4
75
6
66
1
40
0
41
0
0
VERTEX
8
2
10
4.453363
20
3.037074
70
16
0
VERTEX
8
2
10
4.483651
20
3.033191
70
16
0
VERTEX
8
2
10
4.516966
20
3.025426
70
16
0
VERTEX
8
2
10
4.559369
20
3.002129
70
16
0
VERTEX
8
2
10
4.592684
20
2.971066
70
16
0
VERTEX
8
2
10
4.616914
20
2.932238
70
16
0
VERTEX
8
2
10
4.629029
20
2.893409
70
16
0
VERTEX
8
2
10
4.632058
20
2.854581
70
16
0
VERTEX
8
2
10
4.635086
20
2.800222
70
16
0
VERTEX
8
2
10
4.622972
20
2.75751
70
16
0
VERTEX
8
2
10
4.598742
20
2.695385
70
16
0
VERTEX
8
2
10
4.571483
20
2.641026
70
16
0
VERTEX
8
2
10
4.53211
20
2.575018
70
16
0
VERTEX
8
2
10
4.474565
20
2.505127
70
16
0
VERTEX
8
2
10
4.417019
20
2.446884
70
16
0
VERTEX
8
2
10
4.359474
20
2.40029
70
16
0
VERTEX
8
2
10
4.289813
20
2.349814
70
16
0
VERTEX
8
2
10
4.232267
20
2.310985
70
16
0
VERTEX
8
2
10
4.171693
20
2.27604
70
16
0
VERTEX
8
2
10
4.129292
20
2.252743
70
16
0
VERTEX
8
2
10
4.083861
20
2.206149
70
16
0
VERTEX
8
2
10
4.0142
20
2.147907
70
16
0
VERTEX
8
2
10
3.983913
20
2.116844
70
16
0
VERTEX
8
2
10
4.453363
20
3.037074
70
8
0
VERTEX
8
2
10
4.464106
20
3.035614
70
8
0
VERTEX
8
2
10
4.473717
20
3.034132
70
8
0
VERTEX
8
2
10
4.482339
20
3.032604
70
8
0
VERTEX
8
2
10
4.490118
20
3.031007
70
8
0
VERTEX
8
2
10
4.497199
20
3.02932
70
8
0
VERTEX
8
2
10
4.503728
20
3.027519
70
8
0
VERTEX
8
2
10
4.509848
20
3.025581
70
8
0
VERTEX
8
2
10
4.515704
20
3.023484
70
8
0
VERTEX
8
2
10
4.521418
20
3.02121
70
8
0
VERTEX
8
2
10
4.527011
20
3.018762
70
8
0
VERTEX
8
2
10
4.532479
20
3.016147
70
8
0
VERTEX
8
2
10
4.53782
20
3.013373
70
8
0
VERTEX
8
2
10
4.543031
20
3.010447
70
8
0
VERTEX
8
2
10
4.548109
20
3.007377
70
8
0
VERTEX
8
2
10
4.553051
20
3.00417
70
8
0
VERTEX
8
2
10
4.557854
20
3.000835
70
8
0
VERTEX
8
2
10
4.562516
20
2.997376
70
8
0
VERTEX
8
2
10
4.567035
20
2.993797
70
8
0
VERTEX
8
2
10
4.571412
20
2.990096
70
8
0
VERTEX
8
2
10
4.575648
20
2.986274
70
8
0
VERTEX
8
2
10
4.579741
20
2.98233
70
8
0
VERTEX
8
2
10
4.583693
20
2.978266
70
8
0
VERTEX
8
2
10
4.587502
20
2.974079
70
8
0
VERTEX
8
2
10
4.59117
20
2.969772
70
8
0
VERTEX
8
2
10
4.594695
20
2.965346
70
8
0
VERTEX
8
2
10
4.598071
20
2.960813
70
8
0
VERTEX
8
2
10
4.601294
20
2.95619
70
8
0
VERTEX
8
2
10
4.604357
20
2.95149
70
8
0
VERTEX
8
2
10
4.607255
20
2.94673
70
8
0
VERTEX
8
2
10
4.609981
20
2.941925
70
8
0
VERTEX
8
2
10
4.61253
20
2.937089
70
8
0
VERTEX
8
2
10
4.614895
20
2.932238
70
8
0
VERTEX
8
2
10
4.617073
20
2.927384
70
8
0
VERTEX
8
2
10
4.619067
20
2.922531
70
8
0
VERTEX
8
2
10
4.620884
20
2.917677
70
8
0
VERTEX
8
2
10
4.62253
20
2.912824
70
8
0
VERTEX
8
2
10
4.624009
20
2.90797
70
8
0
VERTEX
8
2
10
4.62533
20
2.903117
70
8
0
VERTEX
8
2
10
4.626496
20
2.898263
70
8
0
VERTEX
8
2
10
4.627514
20
2.893409
70
8
0
VERTEX
8
2
10
4.628393
20
2.888551
70
8
0
VERTEX
8
2
10
4.629147
20
2.883662
70
8
0
VERTEX
8
2
10
4.629795
20
2.878712
70
8
0
VERTEX
8
2
10
4.630354
20
2.873672
70
8
0
VERTEX
8
2
10
4.630842
20
2.86851
70
8
0
VERTEX
8
2
10
4.631277
20
2.863196
70
8
0
VERTEX
8
2
10
4.631676
20
2.857701
70
8
0
VERTEX
8
2
10
4.632058
20
2.851993
70
8
0
VERTEX
8
2
10
4.632431
20
2.846056
70
8
0
VERTEX
8
2
10
4.632775
20
2.83993
70
8
0
VERTEX
8
2
10
4.63306
20
2.833667
70
8
0
VERTEX
8
2
10
4.633256
20
2.827321
70
8
0
VERTEX
8
2
10
4.633334
20
2.820944
70
8
0
VERTEX
8
2
10
4.633264
20
2.81459
70
8
0
VERTEX
8
2
10
4.633017
20
2.808312
70
8
0
VERTEX
8
2
10
4.632562
20
2.802163
70
8
0
VERTEX
8
2
10
4.631877
20
2.796177
70
8
0
VERTEX
8
2
10
4.630961
20
2.790312
70
8
0
VERTEX
8
2
10
4.62982
20
2.784508
70
8
0
VERTEX
8
2
10
4.628461
20
2.778704
70
8
0
VERTEX
8
2
10
4.626888
20
2.77284
70
8
0
VERTEX
8
2
10
4.625109
20
2.766854
70
8
0
VERTEX
8
2
10
4.623128
20
2.760685
70
8
0
VERTEX
8
2
10
4.620952
20
2.754275
70
8
0
VERTEX
8
2
10
4.618589
20
2.74758
70
8
0
VERTEX
8
2
10
4.616054
20
2.740634
70
8
0
VERTEX
8
2
10
4.613366
20
2.733492
70
8
0
VERTEX
8
2
10
4.610541
20
2.726205
70
8
0
VERTEX
8
2
10
4.607598
20
2.718828
70
8
0
VERTEX
8
2
10
4.604555
20
2.711412
70
8
0
VERTEX
8
2
10
4.601428
20
2.704012
70
8
0
VERTEX
8
2
10
4.598237
20
2.69668
70
8
0
VERTEX
8
2
10
4.594992
20
2.689454
70
8
0
VERTEX
8
2
10
4.591682
20
2.682311
70
8
0
VERTEX
8
2
10
4.58829
20
2.675214
70
8
0
VERTEX
8
2
10
4.584797
20
2.668125
70
8
0
VERTEX
8
2
10
4.581185
20
2.661005
70
8
0
VERTEX
8
2
10
4.577438
20
2.653817
70
8
0
VERTEX
8
2
10
4.573537
20
2.646523
70
8
0
VERTEX
8
2
10
4.569464
20
2.639084
70
8
0
VERTEX
8
2
10
4.565203
20
2.631473
70
8
0
VERTEX
8
2
10
4.560741
20
2.623695
70
8
0
VERTEX
8
2
10
4.556066
20
2.615765
70
8
0
VERTEX
8
2
10
4.551166
20
2.607698
70
8
0
VERTEX
8
2
10
4.546029
20
2.59951
70
8
0
VERTEX
8
2
10
4.540644
20
2.591216
70
8
0
VERTEX
8
2
10
4.534999
20
2.582831
70
8
0
VERTEX
8
2
10
4.529081
20
2.574371
70
8
0
VERTEX
8
2
10
4.522888
20
2.565852
70
8
0
VERTEX
8
2
10
4.516446
20
2.557302
70
8
0
VERTEX
8
2
10
4.509791
20
2.548753
70
8
0
VERTEX
8
2
10
4.502959
20
2.540234
70
8
0
VERTEX
8
2
10
4.495984
20
2.531776
70
8
0
VERTEX
8
2
10
4.488904
20
2.523408
70
8
0
VERTEX
8
2
10
4.481752
20
2.515162
70
8
0
VERTEX
8
2
10
4.474565
20
2.507068
70
8
0
VERTEX
8
2
10
4.467371
20
2.499151
70
8
0
VERTEX
8
2
10
4.460178
20
2.491416
70
8
0
VERTEX
8
2
10
4.452985
20
2.483862
70
8
0
VERTEX
8
2
10
4.445792
20
2.476491
70
8
0
VERTEX
8
2
10
4.438599
20
2.469302
70
8
0
VERTEX
8
2
10
4.431405
20
2.462294
70
8
0
VERTEX
8
2
10
4.424212
20
2.455469
70
8
0
VERTEX
8
2
10
4.417019
20
2.448826
70
8
0
VERTEX
8
2
10
4.409822
20
2.442359
70
8
0
VERTEX
8
2
10
4.402601
20
2.436045
70
8
0
VERTEX
8
2
10
4.395333
20
2.429851
70
8
0
VERTEX
8
2
10
4.387994
20
2.423749
70
8
0
VERTEX
8
2
10
4.38056
20
2.417707
70
8
0
VERTEX
8
2
10
4.373008
20
2.411696
70
8
0
VERTEX
8
2
10
4.365314
20
2.405685
70
8
0
VERTEX
8
2
10
4.357454
20
2.399643
70
8
0
VERTEX
8
2
10
4.349417
20
2.393551
70
8
0
VERTEX
8
2
10
4.341238
20
2.387428
70
8
0
VERTEX
8
2
10
4.332964
20
2.381306
70
8
0
VERTEX
8
2
10
4.324643
20
2.375214
70
8
0
VERTEX
8
2
10
4.316322
20
2.369182
70
8
0
VERTEX
8
2
10
4.308048
20
2.363242
70
8
0
VERTEX
8
2
10
4.299869
20
2.357423
70
8
0
VERTEX
8
2
10
4.291832
20
2.351755
70
8
0
VERTEX
8
2
10
4.283972
20
2.346262
70
8
0
VERTEX
8
2
10
4.276271
20
2.340936
70
8
0
VERTEX
8
2
10
4.2687
20
2.335761
70
8
0
VERTEX
8
2
10
4.26123
20
2.330723
70
8
0
VERTEX
8
2
10
4.25383
20
2.325806
70
8
0
VERTEX
8
2
10
4.246472
20
2.320996
70
8
0
VERTEX
8
2
10
4.239126
20
2.316276
70
8
0
VERTEX
8
2
10
4.231763
20
2.311632
70
8
0
VERTEX
8
2
10
4.224363
20
2.307054
70
8
0
VERTEX
8
2
10
4.216958
20
2.302552
70
8
0
VERTEX
8
2
10
4.209589
20
2.298141
70
8
0
VERTEX
8
2
10
4.202296
20
2.293836
70
8
0
VERTEX
8
2
10
4.195121
20
2.289653
70
8
0
VERTEX
8
2
10
4.188107
20
2.285605
70
8
0
VERTEX
8
2
10
4.181293
20
2.28171
70
8
0
VERTEX
8
2
10
4.174722
20
2.277981
70
8
0
VERTEX
8
2
10
4.168421
20
2.274421
70
8
0
VERTEX
8
2
10
4.162363
20
2.270974
70
8
0
VERTEX
8
2
10
4.156505
20
2.267573
70
8
0
VERTEX
8
2
10
4.150808
20
2.264149
70
8
0
VERTEX
8
2
10
4.145229
20
2.260634
70
8
0
VERTEX
8
2
10
4.139726
20
2.256959
70
8
0
VERTEX
8
2
10
4.134259
20
2.253058
70
8
0
VERTEX
8
2
10
4.128787
20
2.24886
70
8
0
VERTEX
8
2
10
4.123255
20
2.244304
70
8
0
VERTEX
8
2
10
4.117567
20
2.23935
70
8
0
VERTEX
8
2
10
4.111613
20
2.233964
70
8
0
VERTEX
8
2
10
4.105283
20
2.228111
70
8
0
VERTEX
8
2
10
4.098468
20
2.221758
70
8
0
VERTEX
8
2
10
4.091058
20
2.21487
70
8
0
VERTEX
8
2
10
4.082944
20
2.207414
70
8
0
VERTEX
8
2
10
4.074017
20
2.199354
70
8
0
VERTEX
8
2
10
4.064214
20
2.190673
70
8
0
VERTEX
8
2
10
4.053656
20
2.181411
70
8
0
VERTEX
8
2
10
4.042513
20
2.171626
70
8
0
VERTEX
8
2
10
4.030953
20
2.161375
70
8
0
VERTEX
8
2
10
4.019144
20
2.150714
70
8
0
VERTEX
8
2
10
4.007256
20
2.139701
70
8
0
VERTEX
8
2
10
3.995456
20
2.128392
70
8
0
VERTEX
8
2
10
3.983913
20
2.116844
70
8
0
SEQEND
8
2
0
LINE
8
2
62
5
10
4.357039
20
2.000474
11
4.289073
21
2.209651
0
POLYLINE
8
5
62
7
70
1
66
1
40
0
41
0
0
VERTEX
8
5
10
4.360588
20
2.108609
0
VERTEX
8
5
10
4.366929
20
2.093168
0
VERTEX
8
5
10
4.389894
20
2.101168
0
VERTEX
8
5
10
4.394263
20
2.089471
0
VERTEX
8
5
10
4.332167
20
2.065351
0
VERTEX
8
5
10
4.320207
20
2.091028
0
SEQEND
8
5
0
POLYLINE
8
5
62
7
70
0
66
1
40
0
41
0
0
VERTEX
8
5
10
4.320507
20
2.090034
0
VERTEX
8
5
10
4.319078
20
2.086351
0
VERTEX
8
5
10
4.331337
20
2.05968
0
VERTEX
8
5
10
4.393909
20
2.085027
0
VERTEX
8
5
10
4.394563
20
2.088477
0
SEQEND
8
5
0
POLYLINE
8
5
62
7
70
0
66
1
40
0
41
0
0
VERTEX
8
5
10
4.294544
20
1.999533
0
VERTEX
8
5
10
4.328668
20
2.016802
0
VERTEX
8
5
10
4.326324
20
2.021434
0
SEQEND
8
5
0
POLYLINE
8
5
62
7
70
0
66
1
40
0
41
0
0
VERTEX
8
5
10
4.286098
20
2.02766
0
VERTEX
8
5
10
4.315846
20
2.042714
0
VERTEX
8
5
10
4.325882
20
2.022883
0
VERTEX
8
5
10
4.29226
20
2.005868
0
SEQEND
8
5
0
POLYLINE
8
2
62
5
70
4
75
6
66
1
40
0
41
0
0
VERTEX
8
2
10
4.559369
20
2.998246
70
16
0
VERTEX
8
2
10
4.568455
20
2.959418
70
16
0
VERTEX
8
2
10
4.571483
20
2.936121
70
16
0
VERTEX
8
2
10
4.571483
20
2.889527
70
16
0
VERTEX
8
2
10
4.565426
20
2.83905
70
16
0
VERTEX
8
2
10
4.559369
20
2.800222
70
16
0
VERTEX
8
2
10
4.538167
20
2.741979
70
16
0
VERTEX
8
2
10
4.510909
20
2.687619
70
16
0
VERTEX
8
2
10
4.474565
20
2.625494
70
16
0
VERTEX
8
2
10
4.426105
20
2.543955
70
16
0
VERTEX
8
2
10
4.383703
20
2.477947
70
16
0
VERTEX
8
2
10
4.341301
20
2.431353
70
16
0
VERTEX
8
2
10
4.295871
20
2.380876
70
16
0
VERTEX
8
2
10
4.256497
20
2.345931
70
16
0
VERTEX
8
2
10
4.198952
20
2.30322
70
16
0
VERTEX
8
2
10
4.559369
20
2.998246
70
8
0
VERTEX
8
2
10
4.562434
20
2.984902
70
8
0
VERTEX
8
2
10
4.56487
20
2.973766
70
8
0
VERTEX
8
2
10
4.566755
20
2.964495
70
8
0
VERTEX
8
2
10
4.568171
20
2.956748
70
8
0
VERTEX
8
2
10
4.569196
20
2.950185
70
8
0
VERTEX
8
2
10
4.56991
20
2.944463
70
8
0
VERTEX
8
2
10
4.570393
20
2.939241
70
8
0
VERTEX
8
2
10
4.570726
20
2.934179
70
8
0
VERTEX
8
2
10
4.570974
20
2.928995
70
8
0
VERTEX
8
2
10
4.571148
20
2.923643
70
8
0
VERTEX
8
2
10
4.571245
20
2.91814
70
8
0
VERTEX
8
2
10
4.571262
20
2.9125
70
8
0
VERTEX
8
2
10
4.571197
20
2.906739
70
8
0
VERTEX
8
2
10
4.571045
20
2.900872
70
8
0
VERTEX
8
2
10
4.570805
20
2.894914
70
8
0
VERTEX
8
2
10
4.570474
20
2.88888
70
8
0
VERTEX
8
2
10
4.57005
20
2.882787
70
8
0
VERTEX
8
2
10
4.569543
20
2.876665
70
8
0
VERTEX
8
2
10
4.568965
20
2.870542
70
8
0
VERTEX
8
2
10
4.568328
20
2.86445
70
8
0
VERTEX
8
2
10
4.567644
20
2.858419
70
8
0
VERTEX
8
2
10
4.566924
20
2.852478
70
8
0
VERTEX
8
2
10
4.566181
20
2.846659
70
8
0
VERTEX
8
2
10
4.565426
20
2.840991
70
8
0
VERTEX
8
2
10
4.564664
20
2.835491
70
8
0
VERTEX
8
2
10
4.563872
20
2.830111
70
8
0
VERTEX
8
2
10
4.563021
20
2.824793
70
8
0
VERTEX
8
2
10
4.562082
20
2.819474
70
8
0
VERTEX
8
2
10
4.561024
20
2.814095
70
8
0
VERTEX
8
2
10
4.559818
20
2.808594
70
8
0
VERTEX
8
2
10
4.558435
20
2.802911
70
8
0
VERTEX
8
2
10
4.556845
20
2.796986
70
8
0
VERTEX
8
2
10
4.555026
20
2.790775
70
8
0
VERTEX
8
2
10
4.552988
20
2.784306
70
8
0
VERTEX
8
2
10
4.550749
20
2.777625
70
8
0
VERTEX
8
2
10
4.548326
20
2.770777
70
8
0
VERTEX
8
2
10
4.545738
20
2.763808
70
8
0
VERTEX
8
2
10
4.543002
20
2.756762
70
8
0
VERTEX
8
2
10
4.540136
20
2.749687
70
8
0
VERTEX
8
2
10
4.537158
20
2.742626
70
8
0
VERTEX
8
2
10
4.534081
20
2.735615
70
8
0
VERTEX
8
2
10
4.530903
20
2.728642
70
8
0
VERTEX
8
2
10
4.527619
20
2.721684
70
8
0
VERTEX
8
2
10
4.524223
20
2.714719
70
8
0
VERTEX
8
2
10
4.520708
20
2.707723
70
8
0
VERTEX
8
2
10
4.517069
20
2.700674
70
8
0
VERTEX
8
2
10
4.5133
20
2.693549
70
8
0
VERTEX
8
2
10
4.509395
20
2.686325
70
8
0
VERTEX
8
2
10
4.505348
20
2.67898
70
8
0
VERTEX
8
2
10
4.501153
20
2.671492
70
8
0
VERTEX
8
2
10
4.496804
20
2.663836
70
8
0
VERTEX
8
2
10
4.492295
20
2.655991
70
8
0
VERTEX
8
2
10
4.487621
20
2.647933
70
8
0
VERTEX
8
2
10
4.482775
20
2.63964
70
8
0
VERTEX
8
2
10
4.477752
20
2.63109
70
8
0
VERTEX
8
2
10
4.472545
20
2.622259
70
8
0
VERTEX
8
2
10
4.467156
20
2.613139
70
8
0
VERTEX
8
2
10
4.461614
20
2.603785
70
8
0
VERTEX
8
2
10
4.455953
20
2.594264
70
8
0
VERTEX
8
2
10
4.450209
20
2.584644
70
8
0
VERTEX
8
2
10
4.444417
20
2.574994
70
8
0
VERTEX
8
2
10
4.438614
20
2.565381
70
8
0
VERTEX
8
2
10
4.432835
20
2.555875
70
8
0
VERTEX
8
2
10
4.427115
20
2.546544
70
8
0
VERTEX
8
2
10
4.421481
20
2.537444
70
8
0
VERTEX
8
2
10
4.415931
20
2.528596
70
8
0
VERTEX
8
2
10
4.410451
20
2.520005
70
8
0
VERTEX
8
2
10
4.40503
20
2.511679
70
8
0
VERTEX
8
2
10
4.399657
20
2.503626
70
8
0
VERTEX
8
2
10
4.394319
20
2.495855
70
8
0
VERTEX
8
2
10
4.389005
20
2.488371
70
8
0
VERTEX
8
2
10
4.383703
20
2.481183
70
8
0
VERTEX
8
2
10
4.378402
20
2.474289
70
8
0
VERTEX
8
2
10
4.373095
20
2.467653
70
8
0
VERTEX
8
2
10
4.367776
20
2.46123
70
8
0
VERTEX
8
2
10
4.362439
20
2.454973
70
8
0
VERTEX
8
2
10
4.357079
20
2.448838
70
8
0
VERTEX
8
2
10
4.351689
20
2.442779
70
8
0
VERTEX
8
2
10
4.346263
20
2.43675
70
8
0
VERTEX
8
2
10
4.340797
20
2.430706
70
8
0
VERTEX
8
2
10
4.33528
20
2.424609
70
8
0
VERTEX
8
2
10
4.329695
20
2.418456
70
8
0
VERTEX
8
2
10
4.324022
20
2.412249
70
8
0
VERTEX
8
2
10
4.318239
20
2.405993
70
8
0
VERTEX
8
2
10
4.312326
20
2.399692
70
8
0
VERTEX
8
2
10
4.306262
20
2.393349
70
8
0
VERTEX
8
2
10
4.300027
20
2.386968
70
8
0
VERTEX
8
2
10
4.293599
20
2.380553
70
8
0
VERTEX
8
2
10
4.286893
20
2.374058
70
8
0
VERTEX
8
2
10
4.279556
20
2.367241
70
8
0
VERTEX
8
2
10
4.271172
20
2.35981
70
8
0
VERTEX
8
2
10
4.261324
20
2.351472
70
8
0
VERTEX
8
2
10
4.249596
20
2.341936
70
8
0
VERTEX
8
2
10
4.235568
20
2.33091
70
8
0
VERTEX
8
2
10
4.218826
20
2.318102
70
8
0
VERTEX
8
2
10
4.198952
20
2.30322
70
8
0
SEQEND
8
2
0
POLYLINE
8
2
62
5
70
4
75
6
66
1
40
0
41
0
0
VERTEX
8
2
10
4.134234
20
2.498633
70
16
0
VERTEX
8
2
10
4.2227
20
2.523288
70
16
0
VERTEX
8
2
10
4.36886
20
2.58246
70
16
0
VERTEX
8
2
10
4.480403
20
2.686012
70
16
0
VERTEX
8
2
10
4.538098
20
2.784631
70
16
0
VERTEX
8
2
10
4.549637
20
2.893113
70
16
0
VERTEX
8
2
10
4.51502
20
3.006527
70
16
0
VERTEX
8
2
10
4.48425
20
3.026251
70
16
0
VERTEX
8
2
10
4.472711
20
3.036113
70
16
0
VERTEX
8
2
10
4.134234
20
2.498633
70
8
0
VERTEX
8
2
10
4.166683
20
2.508105
70
8
0
VERTEX
8
2
10
4.197659
20
2.51801
70
8
0
VERTEX
8
2
10
4.227132
20
2.52832
70
8
0
VERTEX
8
2
10
4.255073
20
2.539006
70
8
0
VERTEX
8
2
10
4.281452
20
2.550038
70
8
0
VERTEX
8
2
10
4.306237
20
2.561388
70
8
0
VERTEX
8
2
10
4.3294
20
2.573027
70
8
0
VERTEX
8
2
10
4.350911
20
2.584926
70
8
0
VERTEX
8
2
10
4.370761
20
2.597054
70
8
0
VERTEX
8
2
10
4.389033
20
2.609375
70
8
0
VERTEX
8
2
10
4.405833
20
2.621851
70
8
0
VERTEX
8
2
10
4.421266
20
2.634441
70
8
0
VERTEX
8
2
10
4.435437
20
2.647109
70
8
0
VERTEX
8
2
10
4.448451
20
2.659815
70
8
0
VERTEX
8
2
10
4.460413
20
2.672522
70
8
0
VERTEX
8
2
10
4.471429
20
2.68519
70
8
0
VERTEX
8
2
10
4.481588
20
2.697792
70
8
0
VERTEX
8
2
10
4.490921
20
2.710345
70
8
0
VERTEX
8
2
10
4.499442
20
2.72288
70
8
0
VERTEX
8
2
10
4.507167
20
2.735424
70
8
0
VERTEX
8
2
10
4.514111
20
2.748007
70
8
0
VERTEX
8
2
10
4.520289
20
2.760657
70
8
0
VERTEX
8
2
10
4.525715
20
2.773404
70
8
0
VERTEX
8
2
10
4.530406
20
2.786275
70
8
0
VERTEX
8
2
10
4.534372
20
2.799294
70
8
0
VERTEX
8
2
10
4.537617
20
2.812458
70
8
0
VERTEX
8
2
10
4.540142
20
2.825757
70
8
0
VERTEX
8
2
10
4.541944
20
2.839181
70
8
0
VERTEX
8
2
10
4.543026
20
2.85272
70
8
0
VERTEX
8
2
10
4.543387
20
2.866365
70
8
0
VERTEX
8
2
10
4.543026
20
2.880107
70
8
0
VERTEX
8
2
10
4.541944
20
2.893935
70
8
0
VERTEX
8
2
10
4.540153
20
2.907813
70
8
0
VERTEX
8
2
10
4.537707
20
2.921595
70
8
0
VERTEX
8
2
10
4.534676
20
2.935107
70
8
0
VERTEX
8
2
10
4.531127
20
2.948176
70
8
0
VERTEX
8
2
10
4.527126
20
2.960629
70
8
0
VERTEX
8
2
10
4.522743
20
2.972292
70
8
0
VERTEX
8
2
10
4.518044
20
2.982992
70
8
0
VERTEX
8
2
10
4.513097
20
2.992555
70
8
0
VERTEX
8
2
10
4.50797
20
3.000865
70
8
0
VERTEX
8
2
10
4.50273
20
3.008029
70
8
0
VERTEX
8
2
10
4.497445
20
3.01421
70
8
0
VERTEX
8
2
10
4.492183
20
3.019573
70
8
0
VERTEX
8
2
10
4.48701
20
3.024281
70
8
0
VERTEX
8
2
10
4.481996
20
3.028498
70
8
0
VERTEX
8
2
10
4.477207
20
3.032387
70
8
0
VERTEX
8
2
10
4.472711
20
3.036113
70
8
0
SEQEND
8
2
0
POLYLINE
8
2
62
5
70
4
75
6
66
1
40
0
41
0
0
VERTEX
8
2
10
4.134234
20
2.513426
70
16
0
VERTEX
8
2
10
4.211161
20
2.538081
70
16
0
VERTEX
8
2
10
4.303473
20
2.572598
70
16
0
VERTEX
8
2
10
4.388092
20
2.621908
70
16
0
VERTEX
8
2
10
4.48425
20
2.710666
70
16
0
VERTEX
8
2
10
4.522713
20
2.784631
70
16
0
VERTEX
8
2
10
4.530406
20
2.868459
70
16
0
VERTEX
8
2
10
4.522713
20
2.937493
70
16
0
VERTEX
8
2
10
4.507328
20
2.981872
70
16
0
VERTEX
8
2
10
4.480403
20
3.016389
70
16
0
VERTEX
8
2
10
4.465018
20
3.036113
70
16
0
VERTEX
8
2
10
4.134234
20
2.513426
70
8
0
VERTEX
8
2
10
4.161682
20
2.522339
70
8
0
VERTEX
8
2
10
4.1865
20
2.53064
70
8
0
VERTEX
8
2
10
4.208945
20
2.538411
70
8
0
VERTEX
8
2
10
4.229271
20
2.545734
70
8
0
VERTEX
8
2
10
4.247734
20
2.552692
70
8
0
VERTEX
8
2
10
4.264589
20
2.559365
70
8
0
VERTEX
8
2
10
4.280092
20
2.565836
70
8
0
VERTEX
8
2
10
4.294498
20
2.572187
70
8
0
VERTEX
8
2
10
4.308041
20
2.5785
70
8
0
VERTEX
8
2
10
4.320871
20
2.584855
70
8
0
VERTEX
8
2
10
4.333115
20
2.591336
70
8
0
VERTEX
8
2
10
4.344901
20
2.598024
70
8
0
VERTEX
8
2
10
4.356356
20
2.605001
70
8
0
VERTEX
8
2
10
4.367608
20
2.612348
70
8
0
VERTEX
8
2
10
4.378785
20
2.620148
70
8
0
VERTEX
8
2
10
4.390015
20
2.628483
70
8
0
VERTEX
8
2
10
4.401381
20
2.637403
70
8
0
VERTEX
8
2
10
4.412792
20
2.646833
70
8
0
VERTEX
8
2
10
4.424113
20
2.656668
70
8
0
VERTEX
8
2
10
4.435209
20
2.666801
70
8
0
VERTEX
8
2
10
4.445944
20
2.677127
70
8
0
VERTEX
8
2
10
4.456183
20
2.68754
70
8
0
VERTEX
8
2
10
4.465792
20
2.697933
70
8
0
VERTEX
8
2
10
4.474634
20
2.708201
70
8
0
VERTEX
8
2
10
4.482606
20
2.718264
70
8
0
VERTEX
8
2
10
4.489729
20
2.728143
70
8
0
VERTEX
8
2
10
4.496055
20
2.737888
70
8
0
VERTEX
8
2
10
4.501638
20
2.747546
70
8
0
VERTEX
8
2
10
4.50653
20
2.757166
70
8
0
VERTEX
8
2
10
4.510783
20
2.766795
70
8
0
VERTEX
8
2
10
4.51445
20
2.776482
70
8
0
VERTEX
8
2
10
4.517584
20
2.786275
70
8
0
VERTEX
8
2
10
4.520234
20
2.796206
70
8
0
VERTEX
8
2
10
4.522432
20
2.806243
70
8
0
VERTEX
8
2
10
4.52421
20
2.816338
70
8
0
VERTEX
8
2
10
4.525598
20
2.826442
70
8
0
VERTEX
8
2
10
4.526624
20
2.836508
70
8
0
VERTEX
8
2
10
4.52732
20
2.846487
70
8
0
VERTEX
8
2
10
4.527716
20
2.856332
70
8
0
VERTEX
8
2
10
4.527841
20
2.865993
70
8
0
VERTEX
8
2
10
4.527724
20
2.875428
70
8
0
VERTEX
8
2
10
4.52738
20
2.884613
70
8
0
VERTEX
8
2
10
4.526827
20
2.893528
70
8
0
VERTEX
8
2
10
4.526078
20
2.902154
70
8
0
VERTEX
8
2
10
4.525149
20
2.910472
70
8
0
VERTEX
8
2
10
4.524055
20
2.918462
70
8
0
VERTEX
8
2
10
4.52281
20
2.926106
70
8
0
VERTEX
8
2
10
4.521431
20
2.933383
70
8
0
VERTEX
8
2
10
4.519923
20
2.94029
70
8
0
VERTEX
8
2
10
4.51826
20
2.946873
70
8
0
VERTEX
8
2
10
4.516411
20
2.953197
70
8
0
VERTEX
8
2
10
4.514339
20
2.959323
70
8
0
VERTEX
8
2
10
4.512012
20
2.965314
70
8
0
VERTEX
8
2
10
4.509396
20
2.971233
70
8
0
VERTEX
8
2
10
4.506457
20
2.977142
70
8
0
VERTEX
8
2
10
4.503161
20
2.983105
70
8
0
VERTEX
8
2
10
4.499484
20
2.989174
70
8
0
VERTEX
8
2
10
4.495443
20
2.995374
70
8
0
VERTEX
8
2
10
4.491064
20
3.001719
70
8
0
VERTEX
8
2
10
4.486373
20
3.008222
70
8
0
VERTEX
8
2
10
4.481397
20
3.014898
70
8
0
VERTEX
8
2
10
4.476161
20
3.021763
70
8
0
VERTEX
8
2
10
4.470693
20
3.02883
70
8
0
VERTEX
8
2
10
4.465018
20
3.036113
70
8
0
SEQEND
8
2
0
POLYLINE
8
2
62
5
70
4
75
6
66
1
40
0
41
0
0
VERTEX
8
2
10
4.568455
20
2.994363
70
16
0
VERTEX
8
2
10
4.580569
20
2.955535
70
16
0
VERTEX
8
2
10
4.583598
20
2.916706
70
16
0
VERTEX
8
2
10
4.580569
20
2.858464
70
16
0
VERTEX
8
2
10
4.571483
20
2.792456
70
16
0
VERTEX
8
2
10
4.538167
20
2.710917
70
16
0
VERTEX
8
2
10
4.471536
20
2.590549
70
16
0
VERTEX
8
2
10
4.398847
20
2.462415
70
16
0
VERTEX
8
2
10
4.295871
20
2.361462
70
16
0
VERTEX
8
2
10
4.238325
20
2.314868
70
16
0
VERTEX
8
2
10
4.568455
20
2.994363
70
8
0
VERTEX
8
2
10
4.572519
20
2.980675
70
8
0
VERTEX
8
2
10
4.575699
20
2.968579
70
8
0
VERTEX
8
2
10
4.578104
20
2.957848
70
8
0
VERTEX
8
2
10
4.579844
20
2.948254
70
8
0
VERTEX
8
2
10
4.581027
20
2.939571
70
8
0
VERTEX
8
2
10
4.581764
20
2.93157
70
8
0
VERTEX
8
2
10
4.582164
20
2.924025
70
8
0
VERTEX
8
2
10
4.582336
20
2.916706
70
8
0
VERTEX
8
2
10
4.582372
20
2.909424
70
8
0
VERTEX
8
2
10
4.582293
20
2.902126
70
8
0
VERTEX
8
2
10
4.582101
20
2.894797
70
8
0
VERTEX
8
2
10
4.5818
20
2.887423
70
8
0
VERTEX
8
2
10
4.581392
20
2.879989
70
8
0
VERTEX
8
2
10
4.580881
20
2.872479
70
8
0
VERTEX
8
2
10
4.580269
20
2.864877
70
8
0
VERTEX
8
2
10
4.57956
20
2.85717
70
8
0
VERTEX
8
2
10
4.578749
20
2.849341
70
8
0
VERTEX
8
2
10
4.577809
20
2.841376
70
8
0
VERTEX
8
2
10
4.576703
20
2.833258
70
8
0
VERTEX
8
2
10
4.575395
20
2.824975
70
8
0
VERTEX
8
2
10
4.573851
20
2.816509
70
8
0
VERTEX
8
2
10
4.572035
20
2.807846
70
8
0
VERTEX
8
2
10
4.569912
20
2.79897
70
8
0
VERTEX
8
2
10
4.567445
20
2.789867
70
8
0
VERTEX
8
2
10
4.564603
20
2.780517
70
8
0
VERTEX
8
2
10
4.561364
20
2.770878
70
8
0
VERTEX
8
2
10
4.557711
20
2.760905
70
8
0
VERTEX
8
2
10
4.553626
20
2.750554
70
8
0
VERTEX
8
2
10
4.549092
20
2.739777
70
8
0
VERTEX
8
2
10
4.544091
20
2.728531
70
8
0
VERTEX
8
2
10
4.538604
20
2.716769
70
8
0
VERTEX
8
2
10
4.532615
20
2.704445
70
8
0
VERTEX
8
2
10
4.526117
20
2.691533
70
8
0
VERTEX
8
2
10
4.519151
20
2.678074
70
8
0
VERTEX
8
2
10
4.511772
20
2.664131
70
8
0
VERTEX
8
2
10
4.504031
20
2.649762
70
8
0
VERTEX
8
2
10
4.495983
20
2.63503
70
8
0
VERTEX
8
2
10
4.487681
20
2.619994
70
8
0
VERTEX
8
2
10
4.479177
20
2.604715
70
8
0
VERTEX
8
2
10
4.470526
20
2.589255
70
8
0
VERTEX
8
2
10
4.461747
20
2.573657
70
8
0
VERTEX
8
2
10
4.452725
20
2.557909
70
8
0
VERTEX
8
2
10
4.443312
20
2.541978
70
8
0
VERTEX
8
2
10
4.433361
20
2.525835
70
8
0
VERTEX
8
2
10
4.422724
20
2.509449
70
8
0
VERTEX
8
2
10
4.411253
20
2.492791
70
8
0
VERTEX
8
2
10
4.3988
20
2.475828
70
8
0
VERTEX
8
2
10
4.385218
20
2.458533
70
8
0
VERTEX
8
2
10
4.370396
20
2.440893
70
8
0
VERTEX
8
2
10
4.354386
20
2.422981
70
8
0
VERTEX
8
2
10
4.337276
20
2.404886
70
8
0
VERTEX
8
2
10
4.319154
20
2.386701
70
8
0
VERTEX
8
2
10
4.300109
20
2.368515
70
8
0
VERTEX
8
2
10
4.28023
20
2.35042
70
8
0
VERTEX
8
2
10
4.259606
20
2.332508
70
8
0
VERTEX
8
2
10
4.238325
20
2.314868
70
8
0
SEQEND
8
2
0
POLYLINE
8
2
62
5
70
4
75
6
66
1
40
0
41
0
0
VERTEX
8
2
10
4.066317
20
2.874645
70
16
0
VERTEX
8
2
10
4.05426
20
2.970479
70
16
0
VERTEX
8
2
10
4.056671
20
3.084862
70
16
0
VERTEX
8
2
10
4.092842
20
3.155965
70
16
0
VERTEX
8
2
10
4.14107
20
3.177604
70
16
0
VERTEX
8
2
10
4.186886
20
3.18997
70
16
0
VERTEX
8
2
10
4.268874
20
3.186879
70
16
0
VERTEX
8
2
10
4.309867
20
3.162147
70
16
0
VERTEX
8
2
10
4.329159
20
3.134324
70
16
0
VERTEX
8
2
10
4.343627
20
3.100319
70
16
0
VERTEX
8
2
10
4.358096
20
3.072496
70
16
0
VERTEX
8
2
10
4.367741
20
3.050856
70
16
0
VERTEX
8
2
10
4.370152
20
3.044673
70
16
0
VERTEX
8
2
10
4.066317
20
2.874645
70
8
0
VERTEX
8
2
10
4.062402
20
2.908814
70
8
0
VERTEX
8
2
10
4.059638
20
2.939617
70
8
0
VERTEX
8
2
10
4.057935
20
2.96731
70
8
0
VERTEX
8
2
10
4.057199
20
2.992151
70
8
0
VERTEX
8
2
10
4.057339
20
3.014395
70
8
0
VERTEX
8
2
10
4.058263
20
3.0343
70
8
0
VERTEX
8
2
10
4.05988
20
3.052121
70
8
0
VERTEX
8
2
10
4.062097
20
3.068116
70
8
0
VERTEX
8
2
10
4.064831
20
3.082515
70
8
0
VERTEX
8
2
10
4.068034
20
3.095444
70
8
0
VERTEX
8
2
10
4.071666
20
3.107002
70
8
0
VERTEX
8
2
10
4.075686
20
3.117289
70
8
0
VERTEX
8
2
10
4.080055
20
3.126405
70
8
0
VERTEX
8
2
10
4.084732
20
3.134449
70
8
0
VERTEX
8
2
10
4.089678
20
3.141521
70
8
0
VERTEX
8
2
10
4.094852
20
3.147721
70
8
0
VERTEX
8
2
10
4.100216
20
3.153144
70
8
0
VERTEX
8
2
10
4.105741
20
3.157873
70
8
0
VERTEX
8
2
10
4.111397
20
3.161985
70
8
0
VERTEX
8
2
10
4.117157
20
3.165561
70
8
0
VERTEX
8
2
10
4.122992
20
3.168677
70
8
0
VERTEX
8
2
10
4.128875
20
3.171414
70
8
0
VERTEX
8
2
10
4.134776
20
3.173848
70
8
0
VERTEX
8
2
10
4.140668
20
3.176059
70
8
0
VERTEX
8
2
10
4.146539
20
3.17811
70
8
0
VERTEX
8
2
10
4.152449
20
3.180004
70
8
0
VERTEX
8
2
10
4.158471
20
3.181728
70
8
0
VERTEX
8
2
10
4.164681
20
3.183272
70
8
0
VERTEX
8
2
10
4.171156
20
3.184623
70
8
0
VERTEX
8
2
10
4.177969
20
3.185768
70
8
0
VERTEX
8
2
10
4.185197
20
3.186696
70
8
0
VERTEX
8
2
10
4.192915
20
3.187394
70
8
0
VERTEX
8
2
10
4.20116
20
3.187851
70
8
0
VERTEX
8
2
10
4.20982
20
3.188054
70
8
0
VERTEX
8
2
10
4.218743
20
3.187992
70
8
0
VERTEX
8
2
10
4.22778
20
3.187652
70
8
0
VERTEX
8
2
10
4.236778
20
3.187022
70
8
0
VERTEX
8
2
10
4.245589
20
3.18609
70
8
0
VERTEX
8
2
10
4.25406
20
3.184844
70
8
0
VERTEX
8
2
10
4.262041
20
3.183272
70
8
0
VERTEX
8
2
10
4.269414
20
3.18137
70
8
0
VERTEX
8
2
10
4.276183
20
3.179166
70
8
0
VERTEX
8
2
10
4.282388
20
3.176697
70
8
0
VERTEX
8
2
10
4.288064
20
3.173998
70
8
0
VERTEX
8
2
10
4.293251
20
3.171106
70
8
0
VERTEX
8
2
10
4.297986
20
3.168056
70
8
0
VERTEX
8
2
10
4.302307
20
3.164887
70
8
0
VERTEX
8
2
10
4.30625
20
3.161632
70
8
0
VERTEX
8
2
10
4.309854
20
3.158322
70
8
0
VERTEX
8
2
10
4.313152
20
3.154958
70
8
0
VERTEX
8
2
10
4.316176
20
3.151534
70
8
0
VERTEX
8
2
10
4.31896
20
3.148043
70
8
0
VERTEX
8
2
10
4.321538
20
3.144479
70
8
0
VERTEX
8
2
10
4.32394
20
3.140837
70
8
0
VERTEX
8
2
10
4.326202
20
3.137111
70
8
0
VERTEX
8
2
10
4.328355
20
3.133294
70
8
0
VERTEX
8
2
10
4.330429
20
3.129385
70
8
0
VERTEX
8
2
10
4.332437
20
3.125404
70
8
0
VERTEX
8
2
10
4.334388
20
3.121375
70
8
0
VERTEX
8
2
10
4.336292
20
3.117322
70
8
0
VERTEX
8
2
10
4.338159
20
3.113268
70
8
0
VERTEX
8
2
10
4.339997
20
3.109239
70
8
0
VERTEX
8
2
10
4.341817
20
3.105258
70
8
0
VERTEX
8
2
10
4.343627
20
3.101349
70
8
0
VERTEX
8
2
10
4.345436
20
3.09753
70
8
0
VERTEX
8
2
10
4.347244
20
3.093786
70
8
0
VERTEX
8
2
10
4.349053
20
3.090096
70
8
0
VERTEX
8
2
10
4.350861
20
3.08644
70
8
0
VERTEX
8
2
10
4.35267
20
3.082795
70
8
0
VERTEX
8
2
10
4.354478
20
3.079142
70
8
0
VERTEX
8
2
10
4.356287
20
3.075458
70
8
0
VERTEX
8
2
10
4.358096
20
3.071723
70
8
0
VERTEX
8
2
10
4.359899
20
3.06793
70
8
0
VERTEX
8
2
10
4.361675
20
3.064127
70
8
0
VERTEX
8
2
10
4.363394
20
3.060379
70
8
0
VERTEX
8
2
10
4.365028
20
3.056749
70
8
0
VERTEX
8
2
10
4.36655
20
3.0533
70
8
0
VERTEX
8
2
10
4.367929
20
3.050095
70
8
0
VERTEX
8
2
10
4.36914
20
3.047199
70
8
0
VERTEX
8
2
10
4.370152
20
3.044673
70
8
0
SEQEND
8
2
0
POLYLINE
8
2
62
5
70
4
75
6
66
1
40
0
41
0
0
VERTEX
8
2
10
4.075962
20
2.880828
70
16
0
VERTEX
8
2
10
4.071139
20
2.93029
70
16
0
VERTEX
8
2
10
4.068728
20
2.998302
70
16
0
VERTEX
8
2
10
4.071139
20
3.072496
70
16
0
VERTEX
8
2
10
4.085608
20
3.115776
70
16
0
VERTEX
8
2
10
4.109722
20
3.149781
70
16
0
VERTEX
8
2
10
4.145893
20
3.16833
70
16
0
VERTEX
8
2
10
4.186886
20
3.177604
70
16
0
VERTEX
8
2
10
4.247171
20
3.177604
70
16
0
VERTEX
8
2
10
4.280931
20
3.165239
70
16
0
VERTEX
8
2
10
4.309867
20
3.14669
70
16
0
VERTEX
8
2
10
4.324336
20
3.118867
70
16
0
VERTEX
8
2
10
4.336393
20
3.094136
70
16
0
VERTEX
8
2
10
4.350862
20
3.063222
70
16
0
VERTEX
8
2
10
4.353273
20
3.053947
70
16
0
VERTEX
8
2
10
4.353273
20
3.047765
70
16
0
VERTEX
8
2
10
4.075962
20
2.880828
70
8
0
VERTEX
8
2
10
4.074318
20
2.898673
70
8
0
VERTEX
8
2
10
4.072982
20
2.915196
70
8
0
VERTEX
8
2
10
4.071925
20
2.930523
70
8
0
VERTEX
8
2
10
4.071114
20
2.944782
70
8
0
VERTEX
8
2
10
4.07052
20
2.958098
70
8
0
VERTEX
8
2
10
4.070113
20
2.9706
70
8
0
VERTEX
8
2
10
4.06986
20
2.982413
70
8
0
VERTEX
8
2
10
4.069733
20
2.993665
70
8
0
VERTEX
8
2
10
4.069706
20
3.00446
70
8
0
VERTEX
8
2
10
4.069786
20
3.014814
70
8
0
VERTEX
8
2
10
4.069983
20
3.024721
70
8
0
VERTEX
8
2
10
4.07031
20
3.034175
70
8
0
VERTEX
8
2
10
4.070779
20
3.043171
70
8
0
VERTEX
8
2
10
4.0714
20
3.051701
70
8
0
VERTEX
8
2
10
4.072186
20
3.059761
70
8
0
VERTEX
8
2
10
4.073149
20
3.067344
70
8
0
VERTEX
8
2
10
4.074297
20
3.074451
70
8
0
VERTEX
8
2
10
4.075629
20
3.081118
70
8
0
VERTEX
8
2
10
4.07714
20
3.087387
70
8
0
VERTEX
8
2
10
4.078826
20
3.093299
70
8
0
VERTEX
8
2
10
4.08068
20
3.098897
70
8
0
VERTEX
8
2
10
4.0827
20
3.104223
70
8
0
VERTEX
8
2
10
4.08488
20
3.10932
70
8
0
VERTEX
8
2
10
4.087215
20
3.11423
70
8
0
VERTEX
8
2
10
4.089703
20
3.118986
70
8
0
VERTEX
8
2
10
4.092346
20
3.123585
70
8
0
VERTEX
8
2
10
4.095149
20
3.128015
70
8
0
VERTEX
8
2
10
4.098117
20
3.132263
70
8
0
VERTEX
8
2
10
4.101254
20
3.136319
70
8
0
VERTEX
8
2
10
4.104566
20
3.140169
70
8
0
VERTEX
8
2
10
4.108057
20
3.143802
70
8
0
VERTEX
8
2
10
4.111731
20
3.147205
70
8
0
VERTEX
8
2
10
4.115591
20
3.150371
70
8
0
VERTEX
8
2
10
4.119625
20
3.153308
70
8
0
VERTEX
8
2
10
4.123819
20
3.156027
70
8
0
VERTEX
8
2
10
4.128159
20
3.15854
70
8
0
VERTEX
8
2
10
4.132631
20
3.160861
70
8
0
VERTEX
8
2
10
4.13722
20
3.163001
70
8
0
VERTEX
8
2
10
4.141914
20
3.164971
70
8
0
VERTEX
8
2
10
4.146696
20
3.166784
70
8
0
VERTEX
8
2
10
4.151562
20
3.168451
70
8
0
VERTEX
8
2
10
4.15653
20
3.169972
70
8
0
VERTEX
8
2
10
4.161631
20
3.171349
70
8
0
VERTEX
8
2
10
4.166892
20
3.172581
70
8
0
VERTEX
8
2
10
4.172341
20
3.173668
70
8
0
VERTEX
8
2
10
4.178007
20
3.17461
70
8
0
VERTEX
8
2
10
4.183918
20
3.175407
70
8
0
VERTEX
8
2
10
4.190102
20
3.176059
70
8
0
VERTEX
8
2
10
4.196567
20
3.176565
70
8
0
VERTEX
8
2
10
4.203245
20
3.17692
70
8
0
VERTEX
8
2
10
4.210045
20
3.177118
70
8
0
VERTEX
8
2
10
4.216878
20
3.177154
70
8
0
VERTEX
8
2
10
4.223655
20
3.17702
70
8
0
VERTEX
8
2
10
4.230285
20
3.176711
70
8
0
VERTEX
8
2
10
4.23668
20
3.176221
70
8
0
VERTEX
8
2
10
4.24275
20
3.175543
70
8
0
VERTEX
8
2
10
4.248428
20
3.174676
70
8
0
VERTEX
8
2
10
4.253734
20
3.173627
70
8
0
VERTEX
8
2
10
4.25871
20
3.17241
70
8
0
VERTEX
8
2
10
4.263398
20
3.171035
70
8
0
VERTEX
8
2
10
4.267842
20
3.169516
70
8
0
VERTEX
8
2
10
4.272083
20
3.167863
70
8
0
VERTEX
8
2
10
4.276164
20
3.16609
70
8
0
VERTEX
8
2
10
4.280127
20
3.164208
70
8
0
VERTEX
8
2
10
4.284005
20
3.162227
70
8
0
VERTEX
8
2
10
4.287788
20
3.160143
70
8
0
VERTEX
8
2
10
4.291459
20
3.15795
70
8
0
VERTEX
8
2
10
4.294997
20
3.155642
70
8
0
VERTEX
8
2
10
4.298385
20
3.153214
70
8
0
VERTEX
8
2
10
4.301603
20
3.150659
70
8
0
VERTEX
8
2
10
4.304633
20
3.147971
70
8
0
VERTEX
8
2
10
4.307456
20
3.145144
70
8
0
VERTEX
8
2
10
4.31006
20
3.142178
70
8
0
VERTEX
8
2
10
4.312461
20
3.13909
70
8
0
VERTEX
8
2
10
4.314683
20
3.135906
70
8
0
VERTEX
8
2
10
4.31675
20
3.13265
70
8
0
VERTEX
8
2
10
4.318685
20
3.129345
70
8
0
VERTEX
8
2
10
4.320512
20
3.126016
70
8
0
VERTEX
8
2
10
4.322253
20
3.122687
70
8
0
VERTEX
8
2
10
4.323934
20
3.119382
70
8
0
VERTEX
8
2
10
4.325575
20
3.116119
70
8
0
VERTEX
8
2
10
4.327187
20
3.112886
70
8
0
VERTEX
8
2
10
4.32878
20
3.109664
70
8
0
VERTEX
8
2
10
4.330364
20
3.106437
70
8
0
VERTEX
8
2
10
4.331949
20
3.103186
70
8
0
VERTEX
8
2
10
4.333542
20
3.099892
70
8
0
VERTEX
8
2
10
4.335154
20
3.096538
70
8
0
VERTEX
8
2
10
4.336795
20
3.093105
70
8
0
VERTEX
8
2
10
4.338467
20
3.089587
70
8
0
VERTEX
8
2
10
4.340151
20
3.086017
70
8
0
VERTEX
8
2
10
4.341821
20
3.082441
70
8
0
VERTEX
8
2
10
4.343451
20
3.078904
70
8
0
VERTEX
8
2
10
4.345015
20
3.075452
70
8
0
VERTEX
8
2
10
4.346488
20
3.07213
70
8
0
VERTEX
8
2
10
4.347842
20
3.068982
70
8
0
VERTEX
8
2
10
4.349053
20
3.066055
70
8
0
VERTEX
8
2
10
4.3501
20
3.063378
70
8
0
VERTEX
8
2
10
4.350984
20
3.060915
70
8
0
VERTEX
8
2
10
4.351713
20
3.058615
70
8
0
VERTEX
8
2
10
4.352293
20
3.056427
70
8
0
VERTEX
8
2
10
4.352732
20
3.054299
70
8
0
VERTEX
8
2
10
4.353037
20
3.05218
70
8
0
VERTEX
8
2
10
4.353215
20
3.050019
70
8
0
VERTEX
8
2
10
4.353273
20
3.047765
70
8
0
SEQEND
8
2
0
ARC
8
2
62
7
10
4.316422
20
3.021596
40
0.04425195
50
268.219
51
79.06406
0
LINE
8
2
62
7
10
4.29225
20
2.931439
11
4.334588
21
2.981541
0
LINE
8
2
62
5
10
2.888961
20
2.440053
11
3.388232
21
2.467761
0
LINE
8
2
62
5
10
2.889798
20
2.429602
11
3.38996
21
2.457361
0
POLYLINE
8
2
62
1
70
0
66
1
40
0
41
0
0
VERTEX
8
2
10
2.867532
20
2.444501
0
VERTEX
8
2
10
2.869318
20
2.425036
0
VERTEX
8
2
10
2.889861
20
2.426181
0
VERTEX
8
2
10
2.888968
20
2.445647
0
SEQEND
8
2
0
LINE
8
2
62
1
10
4.223123
20
2.230403
11
4.207613
21
2.27814
0
LINE
8
2
62
5
10
4.283043
20
2.228209
11
4.256417
21
2.310157
0
POLYLINE
8
2
62
7
70
4
75
6
66
1
40
0
41
0
0
VERTEX
8
2
10
4.167961
20
2.137341
70
16
0
VERTEX
8
2
10
4.164298
20
2.149668
70
16
0
VERTEX
8
2
10
4.161093
20
2.163756
70
16
0
VERTEX
8
2
10
4.160177
20
2.175496
70
16
0
VERTEX
8
2
10
4.160177
20
2.184888
70
16
0
VERTEX
8
2
10
4.167961
20
2.137341
70
8
0
VERTEX
8
2
10
4.166681
20
2.141726
70
8
0
VERTEX
8
2
10
4.165576
20
2.145669
70
8
0
VERTEX
8
2
10
4.164631
20
2.149228
70
8
0
VERTEX
8
2
10
4.163825
20
2.152456
70
8
0
VERTEX
8
2
10
4.163144
20
2.15541
70
8
0
VERTEX
8
2
10
4.162568
20
2.158143
70
8
0
VERTEX
8
2
10
4.162081
20
2.160711
70
8
0
VERTEX
8
2
10
4.161665
20
2.163169
70
8
0
VERTEX
8
2
10
4.161305
20
2.165571
70
8
0
VERTEX
8
2
10
4.160998
20
2.167966
70
8
0
VERTEX
8
2
10
4.160741
20
2.170402
70
8
0
VERTEX
8
2
10
4.160535
20
2.172928
70
8
0
VERTEX
8
2
10
4.160376
20
2.175591
70
8
0
VERTEX
8
2
10
4.160264
20
2.17844
70
8
0
VERTEX
8
2
10
4.160198
20
2.181523
70
8
0
VERTEX
8
2
10
4.160177
20
2.184888
70
8
0
SEQEND
8
2
0
LINE
8
2
62
7
10
4.163136
20
2.136228
11
4.148072
21
2.182589
0
POLYLINE
8
5
62
7
70
1
66
1
40
0
41
0
0
VERTEX
8
5
10
4.157918
20
1.978495
0
VERTEX
8
5
10
4.144945
20
1.996542
0
VERTEX
8
5
10
4.098489
20
1.96315
0
VERTEX
8
5
10
4.111461
20
1.945102
0
SEQEND
8
5
0
POLYLINE
8
5
62
7
70
0
66
1
40
0
41
0
0
VERTEX
8
5
10
4.158579
20
1.977131
0
VERTEX
8
5
10
4.161609
20
1.972916
0
VERTEX
8
5
10
4.115573
20
1.939826
0
VERTEX
8
5
10
4.112543
20
1.944041
0
SEQEND
8
5
0
ARC
8
5
62
7
10
4.727314
20
1.136188
40
1.028951
50
122.05
51
124.0694
0
POLYLINE
8
5
62
7
70
0
66
1
40
0
41
0
0
VERTEX
8
5
10
4.204722
20
2.032155
0
VERTEX
8
5
10
4.17638
20
2.015833
0
VERTEX
8
5
10
4.185011
20
2.001546
0
VERTEX
8
5
10
4.164911
20
1.987855
0
VERTEX
8
5
10
4.171709
20
1.977382
0
VERTEX
8
5
10
4.214101
20
2.004115
0
SEQEND
8
5
0
POLYLINE
8
5
62
7
70
0
66
1
40
0
41
0
0
VERTEX
8
5
10
4.21573
20
1.999595
0
VERTEX
8
5
10
4.17549
20
1.97502
0
VERTEX
8
5
10
4.172329
20
1.976549
0
SEQEND
8
5
0
LINE
8
2
62
7
10
4.163074
20
2.136261
11
4.16781
21
2.137815
0
LINE
8
2
62
5
10
3.982686
20
2.115149
11
3.989985
21
2.107128
0
LINE
8
2
62
1
10
3.977472
20
2.120496
11
3.994156
21
2.101781
0
LINE
8
2
62
1
10
3.978515
20
2.120496
11
3.960788
21
2.104454
0
LINE
8
2
62
1
10
3.960788
20
2.104454
11
3.976429
21
2.087076
0
LINE
8
2
62
1
10
3.976943
20
2.087093
11
3.99467
21
2.101798
0
ARC
8
5
62
7
10
4.739384
20
1.142267
40
1.028951
50
113.9775
51
115.355
0
POLYLINE
8
5
62
7
70
0
66
1
40
0
41
0
0
VERTEX
8
5
10
4.27076
20
2.069034
0
VERTEX
8
5
10
4.294615
20
2.081131
0
VERTEX
8
5
10
4.304667
20
2.061308
0
VERTEX
8
5
10
4.278896
20
2.04824
0
SEQEND
8
5
0
POLYLINE
8
5
62
7
70
0
66
1
40
0
41
0
0
VERTEX
8
5
10
4.280663
20
2.041642
0
VERTEX
8
5
10
4.307458
20
2.05523
0
VERTEX
8
5
10
4.305111
20
2.05986
0
SEQEND
8
5
0
ARC
8
2
62
7
10
4.228105
20
2.220703
40
0.01068481
50
276.6866
51
119.753
0
POLYLINE
8
2
62
7
70
4
75
6
66
1
40
0
41
0
0
VERTEX
8
2
10
4.240304
20
2.160821
70
16
0
VERTEX
8
2
10
4.229315
20
2.18841
70
16
0
VERTEX
8
2
10
4.220158
20
2.20015
70
16
0
VERTEX
8
2
10
4.215579
20
2.203672
70
16
0
VERTEX
8
2
10
4.240304
20
2.160821
70
8
0
VERTEX
8
2
10
4.236274
20
2.170439
70
8
0
VERTEX
8
2
10
4.232449
20
2.17866
70
8
0
VERTEX
8
2
10
4.228859
20
2.185575
70
8
0
VERTEX
8
2
10
4.225538
20
2.191271
70
8
0
VERTEX
8
2
10
4.222517
20
2.19584
70
8
0
VERTEX
8
2
10
4.219829
20
2.19937
70
8
0
VERTEX
8
2
10
4.217505
20
2.201951
70
8
0
VERTEX
8
2
10
4.215579
20
2.203672
70
8
0
SEQEND
8
2
0
LINE
8
2
62
7
10
4.245009
20
2.163045
11
4.229762
21
2.20997
0
ARC
8
2
62
7
10
4.142468
20
2.192328
40
0.01068481
50
96.73027
51
299.7967
0
LINE
8
2
62
7
10
4.140894
20
2.202966
11
4.222661
21
2.229808
0
LINE
8
2
62
7
10
4.146148
20
2.18276
11
4.228931
21
2.209935
0
LINE
8
2
62
1
10
4.141433
20
2.203022
11
4.136818
21
2.217223
0
LINE
8
2
62
7
10
4.160177
20
2.184888
11
4.216633
21
2.203222
0
ARC
8
2
62
1
10
4.103255
20
2.252205
40
0.04937378
50
311.3948
51
351.4964
0
LINE
8
2
62
7
10
4.240103
20
2.161322
11
4.244969
21
2.16311
0
POLYLINE
8
2
62
5
70
1
66
1
40
0
41
0
0
VERTEX
8
2
10
4.281768
20
2.24621
0
VERTEX
8
2
10
4.295651
20
2.200799
0
VERTEX
8
2
10
4.288764
20
2.198694
0
VERTEX
8
2
10
4.27488
20
2.244105
0
SEQEND
8
2
0
POLYLINE
8
2
62
5
70
0
66
1
40
0
41
0
0
VERTEX
8
2
10
4.282925
20
2.242426
0
VERTEX
8
2
10
4.2967
20
2.246638
0
VERTEX
8
2
10
4.300942
20
2.232762
0
VERTEX
8
2
10
4.287167
20
2.22855
0
SEQEND
8
2
0
LINE
8
2
62
5
10
4.284255
20
2.234557
11
4.299014
21
2.23907
0
POLYLINE
8
2
62
5
70
0
66
1
40
0
41
0
0
VERTEX
8
2
10
4.276037
20
2.24032
0
VERTEX
8
2
10
4.271118
20
2.238816
0
VERTEX
8
2
10
4.27536
20
2.224941
0
VERTEX
8
2
10
4.28028
20
2.226445
0
SEQEND
8
2
0
LINE
8
2
62
5
10
4.283041
20
2.228209
11
4.279344
21
2.17064
0
LINE
8
2
62
5
10
4.251597
20
2.32499
11
4.096255
21
2.803084
0
CIRCLE
8
2
62
7
10
4.212429
20
3.035346
40
0.068894
0
LINE
8
2
62
7
10
4.04368
20
2.761432
11
4.281005
21
2.974589
0
LINE
8
2
62
7
10
4.213847
20
2.966778
11
4.31501
21
2.977539
0
LINE
8
2
62
5
10
3.409612
20
2.458451
11
3.816978
21
2.481059
0
LINE
8
2
62
5
10
3.408775
20
2.468901
11
3.816077
21
2.491506
0
POLYLINE
8
2
62
1
70
0
66
1
40
0
41
0
0
VERTEX
8
2
10
3.387358
20
2.473128
0
VERTEX
8
2
10
3.389144
20
2.453662
0
VERTEX
8
2
10
3.409687
20
2.454807
0
VERTEX
8
2
10
3.408794
20
2.474273
0
SEQEND
8
2
0
LINE
8
2
62
7
10
4.003878
20
2.647002
11
3.960743
21
2.77976
0
LINE
8
2
62
7
10
4.074129
20
2.670426
11
4.043702
21
2.764071
0
ARC
8
2
62
7
10
4.010069
20
2.601239
40
0.01068481
50
96.73027
51
299.7967
0
ARC
8
2
62
7
10
4.095706
20
2.629615
40
0.01068481
50
276.6866
51
119.753
0
LINE
8
2
62
7
10
4.008495
20
2.611877
11
4.090262
21
2.638719
0
LINE
8
2
62
7
10
4.013749
20
2.591671
11
4.096532
21
2.618846
0
LINE
8
2
62
1
10
4.019138
20
2.580298
11
4.015351
21
2.591955
0
ARC
8
2
62
1
10
4.022425
20
2.541867
40
0.0383704
50
301.4109
51
89.01023
0
LINE
8
2
62
1
10
4.109848
20
2.301121
11
4.042735
21
2.508397
0
LINE
8
2
62
7
10
3.99817
20
2.645568
11
4.079938
21
2.67241
0
LINE
8
2
62
7
10
4.006928
20
2.619897
11
4.088696
21
2.646739
0
LINE
8
2
62
7
10
3.99817
20
2.645568
11
4.002863
21
2.632333
0
LINE
8
2
62
7
10
4.079938
20
2.67241
11
4.084631
21
2.659174
0
LINE
8
2
62
7
10
4.002549
20
2.632333
11
4.084317
21
2.659174
0
LINE
8
2
62
7
10
4.006928
20
2.619897
11
4.009447
21
2.61242
0
LINE
8
2
62
7
10
4.088338
20
2.646493
11
4.090857
21
2.639016
0
LINE
8
2
62
7
10
4.063506
20
2.63803
11
4.066025
21
2.630553
0
LINE
8
2
62
7
10
4.033017
20
2.627956
11
4.035535
21
2.620479
0
LINE
8
2
62
7
10
4.054478
20
2.663947
11
4.059171
21
2.650712
0
LINE
8
2
62
7
10
4.024259
20
2.654433
11
4.028952
21
2.641198
0
LINE
8
2
62
7
10
4.01212
20
2.621638
11
4.008147
21
2.633866
0
LINE
8
2
62
7
10
4.082637
20
2.64424
11
4.078427
21
2.657196
0
POLYLINE
8
2
62
1
70
0
66
1
40
0
41
0
0
VERTEX
8
2
10
3.815187
20
2.497174
0
VERTEX
8
2
10
3.816973
20
2.477708
0
VERTEX
8
2
10
3.837516
20
2.478853
0
VERTEX
8
2
10
3.836623
20
2.498319
0
SEQEND
8
2
0
LINE
8
2
62
1
10
4.202793
20
2.292973
11
4.097025
21
2.618493
0
ARC
8
2
62
1
10
4.098215
20
2.248872
40
0.05509107
50
15.61726
51
78.5612
0
LINE
8
2
62
5
10
3.837458
20
2.482196
11
4.046134
21
2.493777
0
LINE
8
2
62
5
10
3.836557
20
2.492643
11
4.043216
21
2.504112
0
LINE
8
2
62
7
10
3.960743
20
2.77976
11
4.1773
21
2.974263
0
CIRCLE
8
2
62
7
10
4.212429
20
3.035346
40
0.01216662
0
LINE
8
2
62
7
10
4.240142
20
3.098446
11
4.324818
21
3.065045
0
LINE
8
2
62
7
10
4.256426
20
2.943964
11
4.29225
21
2.931439
0
LINE
8
2
62
7
10
4.256017
20
2.944222
11
4.287366
21
2.974767
0
POLYLINE
8
5
62
7
70
1
66
1
40
0
41
0
0
VERTEX
8
5
10
4.486371
20
2.148889
0
VERTEX
8
5
10
4.490179
20
2.132638
0
VERTEX
8
5
10
4.466838
20
2.125808
0
VERTEX
8
5
10
4.470078
20
2.11375
0
VERTEX
8
5
10
4.534633
20
2.130188
0
VERTEX
8
5
10
4.529453
20
2.158036
0
SEQEND
8
5
0
POLYLINE
8
5
62
7
70
0
66
1
40
0
41
0
0
VERTEX
8
5
10
4.529787
20
2.157052
0
VERTEX
8
5
10
4.533089
20
2.154884
0
VERTEX
8
5
10
4.538603
20
2.126053
0
VERTEX
8
5
10
4.472946
20
2.110338
0
VERTEX
8
5
10
4.47041
20
2.112766
0
SEQEND
8
5
0
POLYLINE
8
5
62
7
70
1
66
1
40
0
41
0
0
VERTEX
8
5
10
4.495903
20
2.103935
0
VERTEX
8
5
10
4.380557
20
2.066995
0
VERTEX
8
5
10
4.386714
20
2.047771
0
VERTEX
8
5
10
4.502059
20
2.084711
0
SEQEND
8
5
0
POLYLINE
8
5
62
7
70
0
66
1
40
0
41
0
0
VERTEX
8
5
10
4.502533
20
2.083232
0
VERTEX
8
5
10
4.50348
20
2.080275
0
VERTEX
8
5
10
4.388134
20
2.043335
0
VERTEX
8
5
10
4.386714
20
2.047771
0
SEQEND
8
5
0
POLYLINE
8
5
62
7
70
1
66
1
40
0
41
0
0
VERTEX
8
5
10
4.457301
20
2.119059
0
VERTEX
8
5
10
4.450522
20
2.140226
0
VERTEX
8
5
10
4.396035
20
2.122776
0
VERTEX
8
5
10
4.402814
20
2.101609
0
SEQEND
8
5
0
POLYLINE
8
5
62
7
70
0
66
1
40
0
41
0
0
VERTEX
8
5
10
4.457509
20
2.117558
0
VERTEX
8
5
10
4.459092
20
2.112613
0
VERTEX
8
5
10
4.405099
20
2.095322
0
VERTEX
8
5
10
4.403516
20
2.100266
0
SEQEND
8
5
0
ARC
8
5
62
7
10
4.739384
20
1.142267
40
1.028951
50
104.0994
51
106.1188
0
ARC
8
5
62
7
10
4.739384
20
1.142267
40
1.028951
50
109.3557
51
111.3925
0
POLYLINE
8
2
62
5
70
0
66
1
40
0
41
0
0
VERTEX
8
2
10
4.391509
20
1.954577
0
VERTEX
8
2
10
4.490694
20
1.992186
0
VERTEX
8
2
10
4.493902
20
1.98122
0
SEQEND
8
2
0
POLYLINE
8
2
62
5
70
0
66
1
40
0
41
0
0
VERTEX
8
2
10
4.354897
20
1.99904
0
VERTEX
8
2
10
4.360243
20
1.982591
0
VERTEX
8
2
10
4.36559
20
1.985332
0
VERTEX
8
2
10
4.360243
20
2.000411
0
SEQEND
8
2
0
LINE
8
2
62
5
10
4.353827
20
1.960658
11
4.385906
21
1.971624
0
POLYLINE
8
5
62
7
70
1
66
1
40
0
41
0
0
VERTEX
8
5
10
4.818613
20
2.180161
0
VERTEX
8
5
10
4.817283
20
2.163522
0
VERTEX
8
5
10
4.792972
20
2.164136
0
VERTEX
8
5
10
4.792379
20
2.151664
0
VERTEX
8
5
10
4.858872
20
2.147632
0
VERTEX
8
5
10
4.862432
20
2.175733
0
SEQEND
8
5
0
POLYLINE
8
5
62
7
70
0
66
1
40
0
41
0
0
VERTEX
8
5
10
4.862451
20
2.174695
0
VERTEX
8
5
10
4.864934
20
2.171623
0
VERTEX
8
5
10
4.861392
20
2.142485
0
VERTEX
8
5
10
4.794071
20
2.14754
0
VERTEX
8
5
10
4.792397
20
2.150626
0
SEQEND
8
5
0
POLYLINE
8
5
62
7
70
1
66
1
40
0
41
0
0
VERTEX
8
5
10
4.686538
20
2.180159
0
VERTEX
8
5
10
4.687868
20
2.16352
0
VERTEX
8
5
10
4.712179
20
2.164135
0
VERTEX
8
5
10
4.712772
20
2.151663
0
VERTEX
8
5
10
4.646279
20
2.147629
0
VERTEX
8
5
10
4.642718
20
2.17573
0
SEQEND
8
5
0
POLYLINE
8
5
62
7
70
0
66
1
40
0
41
0
0
VERTEX
8
5
10
4.642701
20
2.174691
0
VERTEX
8
5
10
4.640217
20
2.17162
0
VERTEX
8
5
10
4.643759
20
2.142481
0
VERTEX
8
5
10
4.711081
20
2.147539
0
VERTEX
8
5
10
4.712755
20
2.150625
0
SEQEND
8
5
0
POLYLINE
8
5
62
7
70
1
66
1
40
0
41
0
0
VERTEX
8
5
10
4.942783
20
2.14309
0
VERTEX
8
5
10
4.946311
20
2.165034
0
VERTEX
8
5
10
4.889823
20
2.174114
0
VERTEX
8
5
10
4.886296
20
2.152169
0
SEQEND
8
5
0
ARC
8
5
62
7
10
4.752594
20
1.144331
40
1.028951
50
77.67201
51
79.24917
0
ARC
8
5
62
7
10
4.752594
20
1.144331
40
1.028951
50
100.6965
51
102.282
0
POLYLINE
8
5
62
7
70
1
66
1
40
0
41
0
0
VERTEX
8
5
10
4.563234
20
2.143248
0
VERTEX
8
5
10
4.559725
20
2.165195
0
VERTEX
8
5
10
4.61622
20
2.174228
0
VERTEX
8
5
10
4.61973
20
2.15228
0
SEQEND
8
5
0
POLYLINE
8
5
62
7
70
1
66
1
40
0
41
0
0
VERTEX
8
5
10
4.563226
20
2.143246
0
VERTEX
8
5
10
4.559717
20
2.165193
0
VERTEX
8
5
10
4.616211
20
2.174227
0
VERTEX
8
5
10
4.619721
20
2.152279
0
SEQEND
8
5
0
POLYLINE
8
5
62
7
70
1
66
1
40
0
41
0
0
VERTEX
8
5
10
5.021574
20
2.148184
0
VERTEX
8
5
10
5.017724
20
2.131943
0
VERTEX
8
5
10
5.041047
20
2.125052
0
VERTEX
8
5
10
5.037776
20
2.113002
0
VERTEX
8
5
10
4.973264
20
2.12961
0
VERTEX
8
5
10
4.978517
20
2.157444
0
SEQEND
8
5
0
POLYLINE
8
5
62
7
70
0
66
1
40
0
41
0
0
VERTEX
8
5
10
4.97818
20
2.156462
0
VERTEX
8
5
10
4.974872
20
2.154302
0
VERTEX
8
5
10
4.969283
20
2.125486
0
VERTEX
8
5
10
5.034897
20
2.109598
0
VERTEX
8
5
10
5.037439
20
2.11202
0
SEQEND
8
5
0
POLYLINE
8
5
62
7
70
0
66
1
40
0
41
0
0
VERTEX
8
5
10
5.231766
20
1.994596
0
VERTEX
8
5
10
5.22941
20
1.98997
0
VERTEX
8
5
10
5.178891
20
2.0157
0
VERTEX
8
5
10
5.181247
20
2.020326
0
SEQEND
8
5
0
POLYLINE
8
5
62
7
70
1
66
1
40
0
41
0
0
VERTEX
8
5
10
5.232675
20
1.995809
0
VERTEX
8
5
10
5.242762
20
2.015614
0
VERTEX
8
5
10
5.191781
20
2.04158
0
VERTEX
8
5
10
5.181693
20
2.021774
0
SEQEND
8
5
0
POLYLINE
8
5
62
7
70
0
66
1
40
0
41
0
0
VERTEX
8
5
10
5.231773
20
1.994592
0
VERTEX
8
5
10
5.229417
20
1.989966
0
VERTEX
8
5
10
5.178899
20
2.015697
0
VERTEX
8
5
10
5.181255
20
2.020323
0
SEQEND
8
5
0
POLYLINE
8
5
62
7
70
1
66
1
40
0
41
0
0
VERTEX
8
5
10
5.232682
20
1.995804
0
VERTEX
8
5
10
5.24277
20
2.01561
0
VERTEX
8
5
10
5.191789
20
2.041576
0
VERTEX
8
5
10
5.181701
20
2.021771
0
SEQEND
8
5
0
POLYLINE
8
5
62
7
70
0
66
1
40
0
41
0
0
VERTEX
8
5
10
5.252324
20
2.033326
0
VERTEX
8
5
10
5.249968
20
2.0287
0
VERTEX
8
5
10
5.199449
20
2.05443
0
VERTEX
8
5
10
5.201805
20
2.059056
0
SEQEND
8
5
0
POLYLINE
8
5
62
7
70
1
66
1
40
0
41
0
0
VERTEX
8
5
10
5.253232
20
2.034539
0
VERTEX
8
5
10
5.26332
20
2.054343
0
VERTEX
8
5
10
5.212339
20
2.080309
0
VERTEX
8
5
10
5.202251
20
2.060503
0
SEQEND
8
5
0
POLYLINE
8
5
62
7
70
0
66
1
40
0
41
0
0
VERTEX
8
5
10
5.252331
20
2.033322
0
VERTEX
8
5
10
5.249975
20
2.028696
0
VERTEX
8
5
10
5.199457
20
2.054426
0
VERTEX
8
5
10
5.201812
20
2.059053
0
SEQEND
8
5
0
POLYLINE
8
5
62
7
70
1
66
1
40
0
41
0
0
VERTEX
8
5
10
5.25324
20
2.034534
0
VERTEX
8
5
10
5.263327
20
2.054339
0
VERTEX
8
5
10
5.212347
20
2.080306
0
VERTEX
8
5
10
5.202259
20
2.0605
0
SEQEND
8
5
0
POLYLINE
8
5
62
7
70
1
66
1
40
0
41
0
0
VERTEX
8
5
10
5.106241
20
2.100286
0
VERTEX
8
5
10
5.113075
20
2.121436
0
VERTEX
8
5
10
5.058633
20
2.139028
0
VERTEX
8
5
10
5.051799
20
2.117877
0
SEQEND
8
5
0
POLYLINE
8
5
62
7
70
0
66
1
40
0
41
0
0
VERTEX
8
5
10
5.105535
20
2.098946
0
VERTEX
8
5
10
5.103939
20
2.094006
0
VERTEX
8
5
10
5.049991
20
2.111438
0
VERTEX
8
5
10
5.051587
20
2.116378
0
SEQEND
8
5
0
POLYLINE
8
5
62
7
70
1
66
1
40
0
41
0
0
VERTEX
8
5
10
5.128785
20
2.065492
0
VERTEX
8
5
10
5.013536
20
2.102732
0
VERTEX
8
5
10
5.007329
20
2.083525
0
VERTEX
8
5
10
5.122579
20
2.046285
0
SEQEND
8
5
0
POLYLINE
8
5
62
7
70
0
66
1
40
0
41
0
0
VERTEX
8
5
10
5.122101
20
2.044807
0
VERTEX
8
5
10
5.121147
20
2.041852
0
VERTEX
8
5
10
5.005897
20
2.079092
0
VERTEX
8
5
10
5.007329
20
2.083525
0
SEQEND
8
5
0
POLYLINE
8
5
62
7
70
1
66
1
40
0
41
0
0
VERTEX
8
5
10
4.691171
20
2.134439
0
VERTEX
8
5
10
4.812287
20
2.134439
0
VERTEX
8
5
10
4.812287
20
2.114254
0
VERTEX
8
5
10
4.691171
20
2.114254
0
SEQEND
8
5
0
POLYLINE
8
5
62
7
70
0
66
1
40
0
41
0
0
VERTEX
8
5
10
4.691171
20
2.112701
0
VERTEX
8
5
10
4.691171
20
2.109595
0
VERTEX
8
5
10
4.812287
20
2.109595
0
VERTEX
8
5
10
4.812287
20
2.114254
0
SEQEND
8
5
0
POLYLINE
8
5
62
7
70
0
66
1
40
0
41
0
0
VERTEX
8
5
10
4.94229
20
2.141657
0
VERTEX
8
5
10
4.941466
20
2.136532
0
VERTEX
8
5
10
4.885491
20
2.145529
0
VERTEX
8
5
10
4.886315
20
2.150655
0
SEQEND
8
5
0
POLYLINE
8
5
62
7
70
1
66
1
40
0
41
0
0
VERTEX
8
5
10
4.934315
20
2.10007
0
VERTEX
8
5
10
4.937825
20
2.122017
0
VERTEX
8
5
10
4.88133
20
2.131051
0
VERTEX
8
5
10
4.87782
20
2.109103
0
SEQEND
8
5
0
POLYLINE
8
5
62
7
70
0
66
1
40
0
41
0
0
VERTEX
8
5
10
4.933823
20
2.098637
0
VERTEX
8
5
10
4.933003
20
2.093511
0
VERTEX
8
5
10
4.877021
20
2.102463
0
VERTEX
8
5
10
4.877841
20
2.107589
0
SEQEND
8
5
0
POLYLINE
8
5
62
7
70
1
66
1
40
0
41
0
0
VERTEX
8
5
10
4.934307
20
2.100071
0
VERTEX
8
5
10
4.937816
20
2.122019
0
VERTEX
8
5
10
4.881321
20
2.131052
0
VERTEX
8
5
10
4.877811
20
2.109104
0
SEQEND
8
5
0
POLYLINE
8
5
62
7
70
0
66
1
40
0
41
0
0
VERTEX
8
5
10
4.933815
20
2.098639
0
VERTEX
8
5
10
4.932995
20
2.093512
0
VERTEX
8
5
10
4.877013
20
2.102464
0
VERTEX
8
5
10
4.877832
20
2.107589
0
SEQEND
8
5
0
POLYLINE
8
5
62
7
70
0
66
1
40
0
41
0
0
VERTEX
8
5
10
4.57138
20
2.09864
0
VERTEX
8
5
10
4.5722
20
2.093514
0
VERTEX
8
5
10
4.628182
20
2.102465
0
VERTEX
8
5
10
4.627363
20
2.107591
0
SEQEND
8
5
0
POLYLINE
8
5
62
7
70
1
66
1
40
0
41
0
0
VERTEX
8
5
10
4.570888
20
2.100073
0
VERTEX
8
5
10
4.567379
20
2.12202
0
VERTEX
8
5
10
4.623874
20
2.131053
0
VERTEX
8
5
10
4.627384
20
2.109106
0
SEQEND
8
5
0
POLYLINE
8
5
62
7
70
0
66
1
40
0
41
0
0
VERTEX
8
5
10
4.571372
20
2.098639
0
VERTEX
8
5
10
4.572192
20
2.093512
0
VERTEX
8
5
10
4.628174
20
2.102464
0
VERTEX
8
5
10
4.627355
20
2.10759
0
SEQEND
8
5
0
POLYLINE
8
5
62
7
70
1
66
1
40
0
41
0
0
VERTEX
8
5
10
4.57088
20
2.100071
0
VERTEX
8
5
10
4.56737
20
2.122019
0
VERTEX
8
5
10
4.623866
20
2.131052
0
VERTEX
8
5
10
4.627375
20
2.109105
0
SEQEND
8
5
0
POLYLINE
8
5
62
7
70
0
66
1
40
0
41
0
0
VERTEX
8
5
10
4.563726
20
2.141815
0
VERTEX
8
5
10
4.564546
20
2.136689
0
VERTEX
8
5
10
4.620528
20
2.145639
0
VERTEX
8
5
10
4.619709
20
2.150765
0
SEQEND
8
5
0
POLYLINE
8
5
62
7
70
0
66
1
40
0
41
0
0
VERTEX
8
5
10
4.563718
20
2.141813
0
VERTEX
8
5
10
4.564538
20
2.136687
0
VERTEX
8
5
10
4.62052
20
2.145638
0
VERTEX
8
5
10
4.6197
20
2.150764
0
SEQEND
8
5
0
ARC
8
5
62
7
10
4.765911
20
1.142233
40
1.028951
50
73.69114
51
75.72792
0
POLYLINE
8
5
62
7
70
1
66
1
40
0
41
0
0
VERTEX
8
5
10
5.147251
20
2.107573
0
VERTEX
8
5
10
5.14087
20
2.092149
0
VERTEX
8
5
10
5.117925
20
2.10021
0
VERTEX
8
5
10
5.113526
20
2.088524
0
VERTEX
8
5
10
5.175557
20
2.064241
0
VERTEX
8
5
10
5.187586
20
2.089885
0
SEQEND
8
5
0
POLYLINE
8
5
62
7
70
0
66
1
40
0
41
0
0
VERTEX
8
5
10
5.187284
20
2.088892
0
VERTEX
8
5
10
5.188702
20
2.085206
0
VERTEX
8
5
10
5.176372
20
2.058568
0
VERTEX
8
5
10
5.113867
20
2.08408
0
VERTEX
8
5
10
5.113223
20
2.087531
0
SEQEND
8
5
0
ARC
8
5
62
7
10
4.765911
20
1.142233
40
1.028951
50
64.57649
51
65.85238
0
ARC
8
5
62
7
10
4.765911
20
1.142233
40
1.028951
50
68.43487
51
70.45426
0
ARC
8
5
62
7
10
4.765911
20
1.142233
40
1.028951
50
59.8112
51
61.39675
0
POLYLINE
8
5
62
7
70
1
66
1
40
0
41
0
0
VERTEX
8
5
10
5.395299
20
1.943949
0
VERTEX
8
5
10
5.408282
20
1.961989
0
VERTEX
8
5
10
5.361845
20
1.995409
0
VERTEX
8
5
10
5.348862
20
1.977369
0
SEQEND
8
5
0
POLYLINE
8
5
62
7
70
0
66
1
40
0
41
0
0
VERTEX
8
5
10
5.394217
20
1.942889
0
VERTEX
8
5
10
5.391184
20
1.938675
0
VERTEX
8
5
10
5.345169
20
1.971792
0
VERTEX
8
5
10
5.348201
20
1.976006
0
SEQEND
8
5
0
POLYLINE
8
5
62
7
70
1
66
1
40
0
41
0
0
VERTEX
8
5
10
5.329372
20
2.015476
0
VERTEX
8
5
10
5.320732
20
2.001195
0
VERTEX
8
5
10
5.340823
20
1.987492
0
VERTEX
8
5
10
5.334019
20
1.977023
0
VERTEX
8
5
10
5.277694
20
2.012592
0
VERTEX
8
5
10
5.29122
20
2.037479
0
SEQEND
8
5
0
POLYLINE
8
5
62
7
70
0
66
1
40
0
41
0
0
VERTEX
8
5
10
5.290598
20
2.036647
0
VERTEX
8
5
10
5.286788
20
2.035604
0
VERTEX
8
5
10
5.272642
20
2.009885
0
VERTEX
8
5
10
5.330236
20
1.974664
0
VERTEX
8
5
10
5.333398
20
1.976191
0
SEQEND
8
5
0
ARC
8
5
62
7
10
4.777894
20
1.136173
40
1.028951
50
55.85605
51
57.89283
0
POLYLINE
8
5
62
7
70
1
66
1
40
0
41
0
0
VERTEX
8
5
10
4.723321
20
2.160616
0
VERTEX
8
5
10
4.723321
20
2.182842
0
VERTEX
8
5
10
4.780534
20
2.182842
0
VERTEX
8
5
10
4.780534
20
2.160616
0
SEQEND
8
5
0
POLYLINE
8
5
62
7
70
0
66
1
40
0
41
0
0
VERTEX
8
5
10
4.72358
20
2.159123
0
VERTEX
8
5
10
4.72358
20
2.153932
0
VERTEX
8
5
10
4.780274
20
2.153932
0
VERTEX
8
5
10
4.780274
20
2.159123
0
SEQEND
8
5
0
ARC
8
5
62
7
10
4.752594
20
1.144331
40
1.028951
50
96.24087
51
97.51676
0
ARC
8
5
62
7
10
4.752594
20
1.144331
40
1.028951
50
91.639
51
93.65838
0
ARC
8
5
62
7
10
4.752594
20
1.144331
40
1.028951
50
86.36533
51
88.40211
0
ARC
8
5
62
7
10
4.752594
20
1.144331
40
1.028951
50
82.4028
51
83.78025
0
POLYLINE
8
2
62
7
70
0
66
1
40
0
41
0
0
VERTEX
8
2
10
4.352705
20
3.047655
0
VERTEX
8
2
10
4.410372
20
2.99009
0
VERTEX
8
2
10
4.406554
20
2.985123
0
VERTEX
8
2
10
4.38604
20
2.998417
0
VERTEX
8
2
10
4.369345
20
2.976941
0
VERTEX
8
2
10
4.387294
20
2.963792
0
VERTEX
8
2
10
4.382166
20
2.957217
0
VERTEX
8
2
10
4.332192
20
2.978621
0
SEQEND
8
2
0
POLYLINE
8
2
62
7
70
0
66
1
40
0
41
0
0
VERTEX
8
2
10
4.34709
20
3.051901
0
VERTEX
8
2
10
4.383295
20
3.041113
0
VERTEX
8
2
10
4.428595
20
2.995637
0
VERTEX
8
2
10
4.410413
20
2.99001
0
SEQEND
8
2
0
CIRCLE
8
2
62
7
10
4.458712
20
2.915463
40
0.03110228
0
POLYLINE
8
2
62
7
70
4
75
6
66
1
40
0
41
0
0
VERTEX
8
2
10
4.413296
20
2.98836
70
16
0
VERTEX
8
2
10
4.409569
20
2.977211
70
16
0
VERTEX
8
2
10
4.409569
20
2.969247
70
16
0
VERTEX
8
2
10
4.412675
20
2.958894
70
16
0
VERTEX
8
2
10
4.419508
20
2.951726
70
16
0
VERTEX
8
2
10
4.431312
20
2.942169
70
16
0
VERTEX
8
2
10
4.437524
20
2.937391
70
16
0
VERTEX
8
2
10
4.413296
20
2.98836
70
8
0
VERTEX
8
2
10
4.412067
20
2.984502
70
8
0
VERTEX
8
2
10
4.41115
20
2.981234
70
8
0
VERTEX
8
2
10
4.410506
20
2.978477
70
8
0
VERTEX
8
2
10
4.4101
20
2.976149
70
8
0
VERTEX
8
2
10
4.409892
20
2.974169
70
8
0
VERTEX
8
2
10
4.409846
20
2.972457
70
8
0
VERTEX
8
2
10
4.409923
20
2.970932
70
8
0
VERTEX
8
2
10
4.410087
20
2.969512
70
8
0
VERTEX
8
2
10
4.410306
20
2.968131
70
8
0
VERTEX
8
2
10
4.410574
20
2.966779
70
8
0
VERTEX
8
2
10
4.410893
20
2.965457
70
8
0
VERTEX
8
2
10
4.411265
20
2.96417
70
8
0
VERTEX
8
2
10
4.41169
20
2.96292
70
8
0
VERTEX
8
2
10
4.412169
20
2.96171
70
8
0
VERTEX
8
2
10
4.412704
20
2.960544
70
8
0
VERTEX
8
2
10
4.413297
20
2.959424
70
8
0
VERTEX
8
2
10
4.413949
20
2.958351
70
8
0
VERTEX
8
2
10
4.414674
20
2.957307
70
8
0
VERTEX
8
2
10
4.415485
20
2.956272
70
8
0
VERTEX
8
2
10
4.416396
20
2.955227
70
8
0
VERTEX
8
2
10
4.417421
20
2.95415
70
8
0
VERTEX
8
2
10
4.418574
20
2.953022
70
8
0
VERTEX
8
2
10
4.419869
20
2.951823
70
8
0
VERTEX
8
2
10
4.42132
20
2.950532
70
8
0
VERTEX
8
2
10
4.422936
20
2.949134
70
8
0
VERTEX
8
2
10
4.424704
20
2.947638
70
8
0
VERTEX
8
2
10
4.426606
20
2.946059
70
8
0
VERTEX
8
2
10
4.428626
20
2.944409
70
8
0
VERTEX
8
2
10
4.430745
20
2.942704
70
8
0
VERTEX
8
2
10
4.432946
20
2.940956
70
8
0
VERTEX
8
2
10
4.435212
20
2.939181
70
8
0
VERTEX
8
2
10
4.437524
20
2.937391
70
8
0
SEQEND
8
2
0
POLYLINE
8
2
62
7
70
4
75
6
66
1
40
0
41
0
0
VERTEX
8
2
10
4.447463
20
2.955708
70
16
0
VERTEX
8
2
10
4.447463
20
2.953319
70
16
0
VERTEX
8
2
10
4.448706
20
2.949337
70
16
0
VERTEX
8
2
10
4.450569
20
2.946948
70
16
0
VERTEX
8
2
10
4.45119
20
2.946151
70
16
0
VERTEX
8
2
10
4.447463
20
2.955708
70
8
0
VERTEX
8
2
10
4.447491
20
2.954831
70
8
0
VERTEX
8
2
10
4.447572
20
2.953991
70
8
0
VERTEX
8
2
10
4.447701
20
2.953188
70
8
0
VERTEX
8
2
10
4.447871
20
2.952423
70
8
0
VERTEX
8
2
10
4.448077
20
2.951695
70
8
0
VERTEX
8
2
10
4.448315
20
2.951004
70
8
0
VERTEX
8
2
10
4.448578
20
2.950351
70
8
0
VERTEX
8
2
10
4.448861
20
2.949735
70
8
0
VERTEX
8
2
10
4.449158
20
2.949156
70
8
0
VERTEX
8
2
10
4.449465
20
2.948615
70
8
0
VERTEX
8
2
10
4.449775
20
2.948111
70
8
0
VERTEX
8
2
10
4.450084
20
2.947645
70
8
0
VERTEX
8
2
10
4.450385
20
2.947215
70
8
0
VERTEX
8
2
10
4.450674
20
2.946823
70
8
0
VERTEX
8
2
10
4.450944
20
2.946469
70
8
0
VERTEX
8
2
10
4.45119
20
2.946151
70
8
0
SEQEND
8
2
0
POLYLINE
8
2
62
7
70
0
66
1
40
0
41
0
0
VERTEX
8
2
10
4.388448
20
2.965265
0
VERTEX
8
2
10
4.390312
20
2.963672
0
VERTEX
8
2
10
4.384721
20
2.956505
0
SEQEND
8
2
0
POLYLINE
8
2
62
7
70
4
75
6
66
1
40
0
41
0
0
VERTEX
8
2
10
4.384721
20
2.955708
70
16
0
VERTEX
8
2
10
4.387206
20
2.951726
70
16
0
VERTEX
8
2
10
4.392797
20
2.944558
70
16
0
VERTEX
8
2
10
4.400251
20
2.938187
70
16
0
VERTEX
8
2
10
4.408948
20
2.933409
70
16
0
VERTEX
8
2
10
4.419508
20
2.927834
70
16
0
VERTEX
8
2
10
4.425099
20
2.923852
70
16
0
VERTEX
8
2
10
4.428205
20
2.91987
70
16
0
VERTEX
8
2
10
4.384721
20
2.955708
70
8
0
VERTEX
8
2
10
4.385666
20
2.954234
70
8
0
VERTEX
8
2
10
4.386635
20
2.952802
70
8
0
VERTEX
8
2
10
4.387623
20
2.951414
70
8
0
VERTEX
8
2
10
4.388623
20
2.950075
70
8
0
VERTEX
8
2
10
4.38963
20
2.94879
70
8
0
VERTEX
8
2
10
4.390639
20
2.947561
70
8
0
VERTEX
8
2
10
4.391645
20
2.946392
70
8
0
VERTEX
8
2
10
4.392641
20
2.945288
70
8
0
VERTEX
8
2
10
4.393625
20
2.944252
70
8
0
VERTEX
8
2
10
4.394598
20
2.943278
70
8
0
VERTEX
8
2
10
4.395565
20
2.942361
70
8
0
VERTEX
8
2
10
4.39653
20
2.941497
70
8
0
VERTEX
8
2
10
4.397498
20
2.94068
70
8
0
VERTEX
8
2
10
4.398472
20
2.939904
70
8
0
VERTEX
8
2
10
4.399458
20
2.939163
70
8
0
VERTEX
8
2
10
4.400458
20
2.938453
70
8
0
VERTEX
8
2
10
4.401477
20
2.937768
70
8
0
VERTEX
8
2
10
4.402517
20
2.937103
70
8
0
VERTEX
8
2
10
4.403579
20
2.936453
70
8
0
VERTEX
8
2
10
4.404664
20
2.935815
70
8
0
VERTEX
8
2
10
4.405773
20
2.935182
70
8
0
VERTEX
8
2
10
4.406908
20
2.934552
70
8
0
VERTEX
8
2
10
4.408069
20
2.933918
70
8
0
VERTEX
8
2
10
4.409259
20
2.933276
70
8
0
VERTEX
8
2
10
4.410475
20
2.932623
70
8
0
VERTEX
8
2
10
4.411713
20
2.931958
70
8
0
VERTEX
8
2
10
4.412965
20
2.931283
70
8
0
VERTEX
8
2
10
4.414222
20
2.930597
70
8
0
VERTEX
8
2
10
4.415476
20
2.929902
70
8
0
VERTEX
8
2
10
4.41672
20
2.929198
70
8
0
VERTEX
8
2
10
4.417946
20
2.928486
70
8
0
VERTEX
8
2
10
4.419146
20
2.927768
70
8
0
VERTEX
8
2
10
4.420315
20
2.927039
70
8
0
VERTEX
8
2
10
4.421457
20
2.926282
70
8
0
VERTEX
8
2
10
4.422581
20
2.925473
70
8
0
VERTEX
8
2
10
4.423695
20
2.924591
70
8
0
VERTEX
8
2
10
4.424807
20
2.923611
70
8
0
VERTEX
8
2
10
4.425924
20
2.922513
70
8
0
VERTEX
8
2
10
4.427054
20
2.921274
70
8
0
VERTEX
8
2
10
4.428205
20
2.91987
70
8
0
SEQEND
8
2
0
POLYLINE
8
2
62
7
70
0
66
1
40
0
41
0
0
VERTEX
8
2
10
4.413142
20
2.988995
0
VERTEX
8
2
10
4.412921
20
2.989207
0
SEQEND
8
2
0
POLYLINE
8
2
62
7
70
0
66
1
40
0
41
0
0
VERTEX
8
2
10
4.388469
20
2.965094
0
VERTEX
8
2
10
4.372795
20
2.97715
0
VERTEX
8
2
10
4.386589
20
2.994833
0
VERTEX
8
2
10
4.406651
20
2.981973
0
VERTEX
8
2
10
4.411667
20
2.988403
0
VERTEX
8
2
10
4.429849
20
2.99403
0
VERTEX
8
2
10
4.450061
20
2.964041
0
VERTEX
8
2
10
4.447561
20
2.956399
0
SEQEND
8
2
0
POLYLINE
8
2
62
7
70
0
66
1
40
0
41
0
0
VERTEX
8
2
10
4.388704
20
3.037316
0
VERTEX
8
2
10
4.388704
20
3.05226
0
VERTEX
8
2
10
4.454406
20
3.05226
0
VERTEX
8
2
10
4.454406
20
3.021013
0
VERTEX
8
2
10
4.40354
20
3.021013
0
SEQEND
8
2
0
ARC
8
2
62
7
10
4.445092
20
3.002162
40
0.02102631
50
257.747
51
63.70685
0
POLYLINE
8
2
62
7
70
4
75
6
66
1
40
0
41
0
0
VERTEX
8
2
10
4.428973
20
3.076714
70
16
0
VERTEX
8
2
10
4.419436
20
3.093016
70
16
0
VERTEX
8
2
10
4.396122
20
3.10796
70
16
0
VERTEX
8
2
10
4.372808
20
3.110677
70
16
0
VERTEX
8
2
10
4.359032
20
3.109319
70
16
0
VERTEX
8
2
10
4.350554
20
3.101168
70
16
0
VERTEX
8
2
10
4.349494
20
3.090299
70
16
0
VERTEX
8
2
10
4.350554
20
3.086223
70
16
0
VERTEX
8
2
10
4.396122
20
3.075355
70
16
0
VERTEX
8
2
10
4.428973
20
3.076714
70
8
0
VERTEX
8
2
10
4.425305
20
3.082424
70
8
0
VERTEX
8
2
10
4.421486
20
3.087372
70
8
0
VERTEX
8
2
10
4.417563
20
3.091621
70
8
0
VERTEX
8
2
10
4.413585
20
3.095238
70
8
0
VERTEX
8
2
10
4.409598
20
3.098287
70
8
0
VERTEX
8
2
10
4.405651
20
3.100833
70
8
0
VERTEX
8
2
10
4.40179
20
3.102942
70
8
0
VERTEX
8
2
10
4.398064
20
3.104677
70
8
0
VERTEX
8
2
10
4.394512
20
3.106099
70
8
0
VERTEX
8
2
10
4.391138
20
3.107244
70
8
0
VERTEX
8
2
10
4.387937
20
3.108142
70
8
0
VERTEX
8
2
10
4.384906
20
3.108824
70
8
0
VERTEX
8
2
10
4.382041
20
3.10932
70
8
0
VERTEX
8
2
10
4.379337
20
3.10966
70
8
0
VERTEX
8
2
10
4.376791
20
3.109876
70
8
0
VERTEX
8
2
10
4.374398
20
3.109998
70
8
0
VERTEX
8
2
10
4.372153
20
3.11005
70
8
0
VERTEX
8
2
10
4.370048
20
3.110034
70
8
0
VERTEX
8
2
10
4.368077
20
3.109943
70
8
0
VERTEX
8
2
10
4.366229
20
3.109772
70
8
0
VERTEX
8
2
10
4.364497
20
3.109516
70
8
0
VERTEX
8
2
10
4.362873
20
3.10917
70
8
0
VERTEX
8
2
10
4.361348
20
3.108729
70
8
0
VERTEX
8
2
10
4.359915
20
3.108187
70
8
0
VERTEX
8
2
10
4.358566
20
3.107541
70
8
0
VERTEX
8
2
10
4.357304
20
3.106797
70
8
0
VERTEX
8
2
10
4.356133
20
3.105962
70
8
0
VERTEX
8
2
10
4.355058
20
3.105045
70
8
0
VERTEX
8
2
10
4.354082
20
3.104054
70
8
0
VERTEX
8
2
10
4.353209
20
3.102997
70
8
0
VERTEX
8
2
10
4.352444
20
3.101881
70
8
0
VERTEX
8
2
10
4.35179
20
3.100715
70
8
0
VERTEX
8
2
10
4.351251
20
3.099507
70
8
0
VERTEX
8
2
10
4.350818
20
3.098272
70
8
0
VERTEX
8
2
10
4.350482
20
3.097023
70
8
0
VERTEX
8
2
10
4.350234
20
3.095776
70
8
0
VERTEX
8
2
10
4.350065
20
3.094545
70
8
0
VERTEX
8
2
10
4.349965
20
3.093344
70
8
0
VERTEX
8
2
10
4.349925
20
3.092188
70
8
0
VERTEX
8
2
10
4.349936
20
3.091092
70
8
0
VERTEX
8
2
10
4.350077
20
3.090049
70
8
0
VERTEX
8
2
10
4.350782
20
3.088967
70
8
0
VERTEX
8
2
10
4.352573
20
3.087734
70
8
0
VERTEX
8
2
10
4.355974
20
3.086238
70
8
0
VERTEX
8
2
10
4.361507
20
3.084364
70
8
0
VERTEX
8
2
10
4.369694
20
3.082001
70
8
0
VERTEX
8
2
10
4.381058
20
3.079036
70
8
0
VERTEX
8
2
10
4.396122
20
3.075355
70
8
0
SEQEND
8
2
0
POLYLINE
8
2
62
7
70
0
66
1
40
0
41
0
0
VERTEX
8
2
10
4.430033
20
3.075355
0
VERTEX
8
2
10
4.430033
20
3.059052
0
VERTEX
8
2
10
4.417316
20
3.059052
0
VERTEX
8
2
10
4.417316
20
3.075355
0
SEQEND
8
2
0
POLYLINE
8
2
62
7
70
4
75
6
66
1
40
0
41
0
0
VERTEX
8
2
10
4.373868
20
3.10796
70
16
0
VERTEX
8
2
10
4.377047
20
3.106602
70
16
0
VERTEX
8
2
10
4.377047
20
3.099809
70
16
0
VERTEX
8
2
10
4.378107
20
3.095733
70
16
0
VERTEX
8
2
10
4.377047
20
3.091658
70
16
0
VERTEX
8
2
10
4.375987
20
3.087582
70
16
0
VERTEX
8
2
10
4.369629
20
3.084865
70
16
0
VERTEX
8
2
10
4.36433
20
3.083506
70
16
0
VERTEX
8
2
10
4.373868
20
3.10796
70
8
0
VERTEX
8
2
10
4.374917
20
3.107361
70
8
0
VERTEX
8
2
10
4.375708
20
3.106607
70
8
0
VERTEX
8
2
10
4.37628
20
3.105734
70
8
0
VERTEX
8
2
10
4.376672
20
3.104776
70
8
0
VERTEX
8
2
10
4.376923
20
3.103771
70
8
0
VERTEX
8
2
10
4.377072
20
3.102754
70
8
0
VERTEX
8
2
10
4.377159
20
3.101761
70
8
0
VERTEX
8
2
10
4.377224
20
3.100828
70
8
0
VERTEX
8
2
10
4.377297
20
3.099982
70
8
0
VERTEX
8
2
10
4.377381
20
3.09922
70
8
0
VERTEX
8
2
10
4.377469
20
3.098529
70
8
0
VERTEX
8
2
10
4.377555
20
3.097899
70
8
0
VERTEX
8
2
10
4.377632
20
3.097315
70
8
0
VERTEX
8
2
10
4.377695
20
3.096768
70
8
0
VERTEX
8
2
10
4.377738
20
3.096245
70
8
0
VERTEX
8
2
10
4.377753
20
3.095733
70
8
0
VERTEX
8
2
10
4.377738
20
3.095224
70
8
0
VERTEX
8
2
10
4.377693
20
3.094715
70
8
0
VERTEX
8
2
10
4.377623
20
3.094205
70
8
0
VERTEX
8
2
10
4.377533
20
3.093696
70
8
0
VERTEX
8
2
10
4.377426
20
3.093186
70
8
0
VERTEX
8
2
10
4.377306
20
3.092677
70
8
0
VERTEX
8
2
10
4.377179
20
3.092167
70
8
0
VERTEX
8
2
10
4.377047
20
3.091658
70
8
0
VERTEX
8
2
10
4.376912
20
3.091148
70
8
0
VERTEX
8
2
10
4.37676
20
3.090639
70
8
0
VERTEX
8
2
10
4.376575
20
3.09013
70
8
0
VERTEX
8
2
10
4.37634
20
3.08962
70
8
0
VERTEX
8
2
10
4.37604
20
3.089111
70
8
0
VERTEX
8
2
10
4.375656
20
3.088601
70
8
0
VERTEX
8
2
10
4.375173
20
3.088092
70
8
0
VERTEX
8
2
10
4.374574
20
3.087582
70
8
0
VERTEX
8
2
10
4.373844
20
3.087073
70
8
0
VERTEX
8
2
10
4.372974
20
3.086563
70
8
0
VERTEX
8
2
10
4.371954
20
3.086054
70
8
0
VERTEX
8
2
10
4.370777
20
3.085544
70
8
0
VERTEX
8
2
10
4.369434
20
3.085035
70
8
0
VERTEX
8
2
10
4.367918
20
3.084525
70
8
0
VERTEX
8
2
10
4.366219
20
3.084016
70
8
0
VERTEX
8
2
10
4.36433
20
3.083506
70
8
0
SEQEND
8
2
0
POLYLINE
8
2
62
7
70
0
66
1
40
0
41
0
0
VERTEX
8
2
10
4.397182
20
3.075355
0
VERTEX
8
2
10
4.397182
20
3.059052
0
VERTEX
8
2
10
4.417316
20
3.059052
0
SEQEND
8
2
0
POLYLINE
8
2
62
7
70
4
75
6
66
1
40
0
41
0
0
VERTEX
8
2
10
4.417316
20
3.075355
70
16
0
VERTEX
8
2
10
4.410958
20
3.079431
70
16
0
VERTEX
8
2
10
4.397182
20
3.084865
70
16
0
VERTEX
8
2
10
4.385525
20
3.086223
70
16
0
VERTEX
8
2
10
4.375987
20
3.084865
70
16
0
VERTEX
8
2
10
4.36539
20
3.083506
70
16
0
VERTEX
8
2
10
4.417316
20
3.075355
70
8
0
VERTEX
8
2
10
4.414911
20
3.07682
70
8
0
VERTEX
8
2
10
4.41248
20
3.078161
70
8
0
VERTEX
8
2
10
4.410047
20
3.079379
70
8
0
VERTEX
8
2
10
4.407635
20
3.080478
70
8
0
VERTEX
8
2
10
4.405269
20
3.08146
70
8
0
VERTEX
8
2
10
4.402973
20
3.082328
70
8
0
VERTEX
8
2
10
4.400769
20
3.083085
70
8
0
VERTEX
8
2
10
4.398683
20
3.083733
70
8
0
VERTEX
8
2
10
4.396729
20
3.084275
70
8
0
VERTEX
8
2
10
4.394894
20
3.084718
70
8
0
VERTEX
8
2
10
4.393153
20
3.085068
70
8
0
VERTEX
8
2
10
4.391486
20
3.085332
70
8
0
VERTEX
8
2
10
4.389867
20
3.085516
70
8
0
VERTEX
8
2
10
4.388276
20
3.085627
70
8
0
VERTEX
8
2
10
4.386689
20
3.085672
70
8
0
VERTEX
8
2
10
4.385083
20
3.085657
70
8
0
VERTEX
8
2
10
4.383429
20
3.085588
70
8
0
VERTEX
8
2
10
4.381671
20
3.085465
70
8
0
VERTEX
8
2
10
4.379745
20
3.085285
70
8
0
VERTEX
8
2
10
4.377588
20
3.085049
70
8
0
VERTEX
8
2
10
4.375137
20
3.084754
70
8
0
VERTEX
8
2
10
4.372329
20
3.0844
70
8
0
VERTEX
8
2
10
4.369101
20
3.083984
70
8
0
VERTEX
8
2
10
4.36539
20
3.083506
70
8
0
SEQEND
8
2
0
POLYLINE
8
2
62
7
70
0
66
1
40
0
41
0
0
VERTEX
8
2
10
4.449108
20
3.05226
0
VERTEX
8
2
10
4.449108
20
3.079431
0
VERTEX
8
2
10
4.427913
20
3.079431
0
SEQEND
8
2
0
POLYLINE
8
2
62
7
70
0
66
1
40
0
41
0
0
VERTEX
8
2
10
4.392942
20
3.075355
0
VERTEX
8
2
10
4.392942
20
3.05226
0
SEQEND
8
2
0
ENDSEC
0
EOF
